Status Quo - All Stand Up Never


All Stand Up Never Say Never

Tabbed by marcus lubbock
Email marcus4king@fsmail.net


All Stand Up (Never Say Never)
(Rossi/Young)

Guitar intro:
D-A-EEEE D-A-EE-E D-A-EEEE D-A

chorus:
C
All stand up, let me hear you say never say never
Bb F
All hands up, are you ready for the weekend are you ever
C
All stand up, let me hear you say never say never
Bb F C - G
All hands up, let me hear you say we're gonna get together


verse:
F
Working all week til Friday

Wish I could do it my way
Bb
Until when I'm living it up

I ain't giving it up
F
Making the best of my lot

On of these days when I stop
Bb
And I'm gonna be living it up

I won't be giving it up
G#
Telling you now it's my day
Bb
Oh I'm gonna do it my way


chorus:
C
All stand up, let me hear you say never say never
Bb F
All hands up, are you ready for the weekend are you ever
C
All stand up, let me hear you say never say never
Bb F C - G
All hands up, let me hear you say we're gonna get together


verse:
The job it just drives me crazy
Guess I'm a little lazy
I don't care 'cos what do they know
They'll be there when I go
Every day feel like screaming
Nothing gonna stop me dreaming
And there's one thing sure that I know
I can't wait for the whistle to blow
Telling you now it's Friday
I'm gonna do it my way

C
All stand up, let me hear you say never say never


Guitar:
A E A E A
E|----------------------------------------------------|
B|----------------------------------------------------|
G|-2-2-----------------2-2-----------------2-2--------|
D|-2-2-------2-2-------2-2-------2-2-------2-2--------|
A|-0-0-0-3-4-2-2-------0-0-0-3-4-2-2-------0-0-0-3-4--|
E|-----------0-0-0-3-4-----------0-0-0-3-4------------|

E
E|---------------------------------------------------------------|
B|---------------------------------------------------------------|
G|---------------------------------------------------------------|
D|-2-2-------2-2-------2-2-------2-------------------------------|
A|-2-2-------2-2-------2-2-------2-------------------------------|
E|-0-0-0-3-4-0-0-0-3-4-0-0-0-3-4-0-0-3-4-0-0-3-4-0-0-3-4-0-3-4-0-|

D-A-E D A E
E|---------7-----7-----------------7------5----------|
B|----10b12-10b12-10b12-....etc...-10b12--8b10--5----|
G|----------------------------------------------7b9--|
D|---------------------------------------------------|
A|---------------------------------------------------|
E|---------------------------------------------------|

chorus:
C
All stand up, let me hear you say never say never
Bb F
All hands up, are you ready for the weekend are you ever
C
All stand up, let me hear you say never say never
Bb F C - G
All hands up, let me hear you say we're gonna get together


verse:
Living and loving and learning
Gotta keep the whole world turning
So come on let's give it a try
No use in wondering why
Running away and hiding
Taking our time and finding
If we stop then it's all gonna go
Don't wait for the whistle to blow
Everyday feel like screaming
Nothing gonna stop me dreaming


chorus:
C
All stand up, let me hear you say never say never
Bb F
All hands up, are you ready for the weekend are you ever
C
All stand up, let me hear you say never say never
Bb F C - G
All hands up, let me hear you say we're gonna get together

C - G
All hands up, let me hear you say never say never
C - G
All hands up, let me hear you say never say never
C
All hands up, let me hear you say never say never say never say

D-A-EEEE D-A-EE-E

Большой выбор ковров: ковры российские шахреза купить недорогая доставка по России.

расписание приморочка находка владивосток

Status Quo Menu

Status Quo News



«  Декабрь 2016  »
ПнВтСрЧтПтСбВс
   1234
567891011
12131415161718
19202122232425
262728293031

    Russian Fan Site Status Quo! 2008 2016 |