Status Quo - 4500 Times (solo)


4500 Times (solo) Тип: басс табулатура


Song:4500 Times Bass solo
By:Status Quo
Album:Hello!


Guitar and Bass (here's the bass part) P.S its Basicly the guitar solo without bending...
G|-------------4-------4-6-6-4-----------4-|
D|---------4-6---6-4-6-----------6-6-4-6---|
A|-2-2h4/6---------------------------------|
E|-----------------------------------------|


G|-6-6-4-6-4--6-6-4-6-4--6-6-4-6-4-6-4---------------|
D|-------------------------------------------6-4-----|
A|-----------------------------------------------6-2-|
E|---------------------------------------------------|


G|-----------4-----------4-----------4---6-6-----|
D|-------4-6---------4-6---------4-6---6---------|
A|-2h4/6-------2h4/6-------2h4/6-----------------|
E|-----------------------------------------------|


G|-----------4-----------4-----------4-4-----------|
D|-------4-6---------4-6---------4-6-----6-4-------|
A|-2h4/6-------2h4/6-------2h4/6-------------4h6-2-|
E|-------------------------------------------------|

Hope it helps!!!!

Status Quo Menu

Status Quo News



«  Декабрь 2016  »
ПнВтСрЧтПтСбВс
   1234
567891011
12131415161718
19202122232425
262728293031

    Russian Fan Site Status Quo! 2008 2016 |