A Year Тип: табулатура


A Year
Status Quo
Piledriver 1972



INTRO:
Gtr.1 (Fig x5)
> > > > > > > >
E|-----------------|-----------------|-----------------|-----------------|
B|---1---1---1---1-|---1---1---1---1-|---1---1---1---1-|---0---0---0---0-|
G|---2---2---2---2-|---2---2---2---2-|---2---2---2---2-|---2---2---2---2-|
D|-----------------|-----------------|-----------------|-----------------|
A|-0---0---0---0---|-----------------|-----------------|-----------------|
E|-----------------|-3---3---3---3---|-2---2---2---2---|-1---1---1---1---|

Gtr.2
E|-----------------|-----------------|-----------------|-----------------|
B|-----------------|-----------------|-----13----------|-----------------|
G|-----------------|-----------------|--14-------------|-12-12/14--------|
D|-----------------|-----------------|-----------------|-----------------|
A|-----------------|-----------------|-----------------|-----------------|
E|-----------------|-----------------|-----------------|-----------------|

E|-----------------|-----------------|-----------------|-----------------|
B|------15p13\12---|-----------13----|-15~-------------|-15p13\12-13~----|
G|-----------------|-14--12h14-------|-----------------|-----------------|
D|-----------------|-----------------|-----------------|-----------------|
A|-----------------|-----------------|-----------------|-----------------|
E|-----------------|-----------------|-----------------|-----------------|

E|-----------------|-----------------|-----------------|-----------------|
B|--13--13--13-----|--13--13--13-----|--13--13--13-----|--12--12--12/13--|
G|----14--14--14---|----14--14--14---|----14--14--14---|----14--14-------|
D|-----------------|-----------------|-----------------|-----------------|
A|-----------------|-----------------|-----------------|-----------------|
E|-----------------|-----------------|-----------------|-----------------|


E|-----------------|-----------------|-----------------|-----------------|
B|--13--13--13-----|--13--13--13-----|--13--13--13-----|--12--12--12/13--|
G|----14--14--14---|----14--14--14---|----14--14--14---|----14--14-------|
D|-----------------|-----------------|-----------------|-----------------|
A|-----------------|-----------------|-----------------|-----------------|
E|-----------------|-----------------|-----------------|-----------------|


E|-----------------|-----------------|-----------------|-----------------|
B|--13--13--13-----|--13--13--13-----|--13--13--13-----|--12--12--12/13--|
G|----14--14--14---|----14--14--14---|----14--14--14---|----14--14-------|
D|-----------------|-----------------|-----------------|-----------------|
A|-----------------|-----------------|-----------------|-----------------|
E|-----------------|-----------------|-----------------|-----------------|


If you want the solo putting up then please get hold of me.

Questions? Comments?
Corrections?

Status Quo Menu

Status Quo News



«  Июль 2017  »
ПнВтСрЧтПтСбВс
     12
3456789
10111213141516
17181920212223
24252627282930
31

    Russian Fan Site Status Quo! 2008 2017 |