Status Quo - Aint Over Yet


Aint Over Yet Тип: табулатура


The Party Aint Over Yet

nb: for easier use, bar the chords, so the B is a finger across the seventh fret with an
major underneath it. then just slide up and down to find the rest


Guitar intro:

E|-------------------------------------------------------------------11-9-|
B|-12-12-11-9----9-9-11-9-------12-12-11-9----9-9-11-9----9-11-12-12------|
G|------------11----------10---------------11----------10-----------------|
D|---------------------------11-------------------------------------------|
A|------------------------------------------------------------------------|
E|------------------------------------------------------------------------|


E|---------------------------------------------9-9-9/9-9-9/9-9-9-13-11-9------|
B|-12-11-9-9-11-9-11-9----9-11-12-11-9----9-11-9-9-9/9-9-9/9-9-9---------11-9-|
G|---------------------10--------------11-------------------------------------|
D|----------------------------------------------------------------------------|
A|----------------------------------------------------------------------------|
E|----------------------------------------------------------------------------|

Verse 1:

B F# C# B F# C#
There's a troubled wind a blowin' through my crazy life
I feel the chill begin, it's gonna be a long, long, long night
I hear the thunder roll but I don't fear the lightning strike
'Cause deep inside I know I'm gonna make it through alright

Chorus 1:

F# C# Ab C#
So let the walls come tumblin' down
F# C# Ab
Bring on the last sunset
F# C# Ab C#
I ain't moving to heartbreak town
F# Ab C#
The party ain't over yet
F# C# Ab C#
Yeah, let the devil do his worst
F# C# Ab
But don't take any bets
F# C# Ab C#
That life has finally quenched my thirst
F# Ab C#
The party ain't over yet

intro

verse 2:
B F# C# B F# C#
Every drop of rain that ever fell into my life
Helps me ride this pain, they were a blessin'In disguise
And I know in time this'll soon be yesterday
Nothin' I can't climb, I've got the will to find the way

Chorus 2

So let the walls come tumblin' down
Bring on the last sunset
I ain't moving to heartbreak town
The party ain't over yet
Yeah, let the devil do his worst
But don't take any bets
That life has finally quenched my thirst
The party ain't over yet

Verse 3 (nb strum the chords once and let ring)

B F# C#
So when the morning comes
I'll do more than just survive
I'll walk into the sun and live until I die

Chorus 3:

So let the walls come tumblin' down
Bring on the last sunset
I ain't moving to heartbreak town
The party ain't over yet
Yeah, let the devil do his worst
But don't take any bets
That life has finally quenched my thirst
The party ain't over yet

on totp they just sang the last "party aint over yet" slightly differently again and
the last chord

another classic from ts_guitarmaster

long live the Quo

Status Quo Menu

Status Quo News



«  Декабрь 2016  »
ПнВтСрЧтПтСбВс
   1234
567891011
12131415161718
19202122232425
262728293031

    Russian Fan Site Status Quo! 2008 2016 |