Aint Over Yet Тип: басс табулатура


The Party 'aint Over Yet
Status Quo
The Party 'aint Over Yet 2005


Well I've done it by memory so its probably full of mistakes.
If you notice any please contact me.
I've also tried to put it into bars so that its easier to follow.


Intro
G|----------------|----------------|
D|----------------|----------------|
A|-2--------------|4---------------|Twice
E|---------2------|----------------|

G|-------------|--------------|
D|-------------|--------------|
A|-2-2-2-------|4-4-4-4-4-4-4-|
E|-------2-2-2-|--------------|
____________________________________________
Verse
G|-----------------|------------|
D|-----------------|------------|
A|-2-2-2-2---------|4-4-4-4-4-4-|Four Times
E|---------2-2-2-2-|------------|

G|-----------------|
D|-----------------|
A|-4-4-4-4-4-4-4-4-|
E|-----------------|
____________________________________________
Breakdown
G|-----------|-----------------|
D|-----------|-----------------|
A|-2---------|-4---------------|4 times
E|---------2-|-----------------|

E|-----------------|
G|-----------------|
D|-4-4-4-4-4-4-4---|
E|---------------9\|
____________________________________________

 

Комплексный ремонт квартир киев и еще.

Status Quo Menu

Status Quo News



«  Май 2017  »
ПнВтСрЧтПтСбВс
1234567
891011121314
15161718192021
22232425262728
293031

    Russian Fan Site Status Quo! 2008 2017 |