Status Quo - All Around My Hat (intro)


All Around My Hat (intro) Тип: табулатура


Tabbed by: Belavista Man
On: 30/11/06
Edited on: 09/06/07


This song is so hard! Okay, capo ust be set onto the 5th fret for rythme guitar
(having a capo on the Lead guitar is option but ill advised)

Lead guitar is in tabliture, rhythm is in chords as follows;

C G D G
e|---5-7-8------7-----5-----------|
B|-8-------8-5----8-5---8-7-h8----|
G|--------------------------------|
D|--------------------------------|
A|--------------------------------|
E|--------------------------------|
(play twice)

C G B C B A
e|---5-7-8------7-----7--8-7-5---5-|
B|-8-------8-5----8-5---------8----|
G|---------------------------------|
D|---------------------------------|
A|---------------------------------|
E|---------------------------------|

| / slide up
| \ slide down
| h hammer-on
| p pull-off
| ~ vibrato
| + harmonic

Status Quo Menu

Status Quo News



«  Декабрь 2016  »
ПнВтСрЧтПтСбВс
   1234
567891011
12131415161718
19202122232425
262728293031

    Russian Fan Site Status Quo! 2008 2016 |