Status Quo - All The Reasons


All The Reasons Тип: табулатура


All The Reasons
Status Quo


Intro:

D E G D

e|----------------|----------------|----------------|----------------|
b|----------------|----------------|----------------|----------------|
g|----------------|----------------|----------------|----------------|
d|0-----0---------|----------------|0-------0-------|0---------------|
a|------------4---|2------2----4---|----------------|--4-2-0-2-0-----|
e|----------------|----------------|----------------|------------3-2-|

D E G D

e|----------------|----------------|----------------|----------------| r
b|----------------|----------------|----------------|----------------| e
g|----------------|----------------|--------0-------|2-0-------------| p
d|---0------------|----------------|0---------------|----4-2-4-2-0---| e
a|-------4----2---|2-------2---4---|----------------|--------------4-| a
e|2---------------|----------------|----------------|----------------| t


D

e|--2-----2-----2-|--2-----2-----2-|
b|----3-----3-----|3---3-----3-----|
g|2-----2-----2---|------2-----2---|
d|----------------|----------------|
a|----------------|----------------|
e|----------------|----------------|
Melody:

D G D G

e|----------------|----------------|----------------|----------------|
b|----------------|0---3---3---3-0-|0---------------|0---3---3---3-0-|
g|------------2-2-|----------------|--2---------2-2-|----------------|
d|----------------|----------------|----------------|----------------|
a|----------------|----------------|----------------|----------------|
e|----------------|----------------|----------------|----------------|

When I find myself in trouble And I need someone to lean
D G D G

e|----------------|----------------|----------------|----------------|
b|0---------------|0-3-3-0-3---3-3-|0---------------|----------------|
g|--2-----------2-|----------------|--2-----2-------|----------------|
d|----------------|----------------|----------4---4-|2---------------|
a|----------------|----------------|----------------|----------------|
e|----------------|----------------|----------------|----------------|

on I only have to call and you

Status Quo Menu

Status Quo News



«  Декабрь 2016  »
ПнВтСрЧтПтСбВс
   1234
567891011
12131415161718
19202122232425
262728293031

    Russian Fan Site Status Quo! 2008 2016 |