Status Quo - Alright


Alright Тип: табулатура


Alright
Status Quo
ISOTFC 2007


B
E|-7-7-----7-7-----7------7-7-----|
B|-----9-7-----9-7---9-7------9-7-|
G|--------------------------------|
D|--------------------------------|
A|--------------------------------|
E|--------------------------------|x2

B
E|-------------------------------|
B|-7p0-5p0-4p0-0-0-7p0-5-4-0---0-|
G|---------------------------2---|
D|-------------------------------|
A|-------------------------------|
E|-------------------------------|

B A E
E|-------------------------|
B|-7p0-5p0-4p0-0-0-2-2-2---|
G|-----------------------4-|
D|-------------------------|
A|-------------------------|
E|-------------------------|

B
E|-------------------------------|
B|-7p0-5p0-4p0-0-0-7p0-5-4-0---0-|
G|---------------------------2---|
D|-------------------------------|
A|-------------------------------|
E|-------------------------------|

B A E B
E|-------------------------------|
B|-7p0-5p0-4p0-0-0-2-2-2---------|
G|-----------------------4-4p2h4-|
D|-------------------------------|
A|-------------------------------|
E|-------------------------------|


B
Can't believe that I'm standing here alone
A E B
How you used me like a stepping stone

I'm getting used to not having you around
A E
Learning to fly now, I'm gaining ground

G A B
No way you can bring me down
G A
I'm heading for the good times


B
Alright, I'll be alright
A E
I'm moving on, no more hate, no more lies
B
OK, I'll be OK
A E
I'm moving on, I'll live to fight another day
G A B
No more, cos now I've got my dreams in sight
G A B
No more, from now I'm gonna be alright

Status Quo Menu

Status Quo News



«  Декабрь 2016  »
ПнВтСрЧтПтСбВс
   1234
567891011
12131415161718
19202122232425
262728293031

    Russian Fan Site Status Quo! 2008 2016 |