Status Quo - And Mary (solo)


And Mary (solo) Тип: табулатура


Johnny & Mary
Status Quo
Don't Stop 1996


Neck pickup with a bit of Reverb
is the order of the day.

1:28

E|-----------------------------12-14-14b-14b-14b-14b-rb-12-12~-|
B|-----------------------12-14---------------------------------|
G|------------9-11-11/13---------------------------------------|
D|-9-9-9-9/11--------------------------------------------------|
A|-------------------------------------------------------------|
E|-------------------------------------------------------------|

E|-12~-12~-12~-12\11---------------|
B|-------------------14-12---------|
G|-------------------------x-14-13-|
D|---------------------------------|
A|---------------------------------|
E|---------------------------------|

E|-----------------------------------------------------------------|
B|----------------------------------12-10-9----10-9------9---------|
G|------9h11-11b-rb-9-11b-rb-9-11p9---------11------11-9---11-9-8~-|
D|-9h11------------------------------------------------------------|
A|-----------------------------------------------------------------|
E|-----------------------------------------------------------------|

E|------------------------------------------14-------14----------|
B|-15b-rb-14-12------17b-17b-rb-16-14----------------------------|
G|--------------14~-------------------16-16----16-16----16-16-16-|
D|---------------------------------------------------------------|
A|---------------------------------------------------------------|
E|---------------------------------------------------------------|

E|-19-19-19-17-16----17-16-------16----------------------|
B|----------------19-------19-17----19-17-16-19-17-16----|
G|----------------------------------------------------18-|
D|-------------------------------------------------------|
A|-------------------------------------------------------|
E|-------------------------------------------------------|

E|---------------------------19b-rb~~-|
B|-17-17-17p16------------------------|
G|-------------18-16-16b-rb-----------|
D|------------------------------------|
A|------------------------------------|
E|------------------------------------|


|E| |E| |C#m| |C#m|

|E| |E| |G#m| |G#m|

|A| |A| |B| |B|

|Asus2| |Asus2| |B| |B|

Status Quo Menu

Status Quo News



«  Декабрь 2016  »
ПнВтСрЧтПтСбВс
   1234
567891011
12131415161718
19202122232425
262728293031

    Russian Fan Site Status Quo! 2008 2016 |