Status Quo - And Rhythm (intro)


And Rhythm (intro) Тип: табулатура


Blues And Rhythm
Status Quo
Heavy Traffic 2002

The 'bright eyed, handsome man' - Chuck Berry perhaps?

C5 G#5
e|-------------------------------------------------------|
B|-------------------------------------------------------|
G|-5-5-5--5-3--------5-5-3-5-----555-3-------------------|
D|------------------------------------------3---3--5-----|
A|------------6-3-------------6b--------6-3---6------6-3-|
E|-------------------------------------------------------|

Rhythm Fig. for Verse
C5
e|-------------------------|
B|-------------------------|
G|-------------------------|
D|-------------------------|
A|-10-10-------10-10-13-12-|
E|-8--8--11-12-8--8--8--8--|>Not as easy as it sounds is it?

Status Quo Menu

Status Quo News



«  Декабрь 2016  »
ПнВтСрЧтПтСбВс
   1234
567891011
12131415161718
19202122232425
262728293031

    Russian Fan Site Status Quo! 2008 2016 |