Status Quo - Beautiful


Beautiful Тип: табулатура


Beautiful
Status Quo
Sherri Don't Fail Me Now B-Side 1994
sam-lennon-singleton@hotmail.co.uk

Intro
E|-------------------------------------------------|
B|-------------------------------------------------|
G|-----------------10b-rb--------------------------|
D|------8-10b-rb-8--------8----8-10b-10b-rbp8-10-8-|
A|-8h10---------------------10---------------------|
E|-------------------------------------------------|

E|-----------------------------------------------|
B|-------11--13b-13b-rb-p11h13-11-11-11-11-10-10-|
G|-10/12-----------------------------------------|
D|-----------------------------------------------|
A|-----------------------------------------------|
E|-----------------------------------------------|

Solo: 2:09
E|---------------------------------------------------------|
B|---------------------------------------------------------|
G|---------------------------------------------------------|
D|------8-8-10b-rb-8-8-(10b)-rb-(10b)-rb-(10b)-rb-(10b)-rb-|
A|-8h10----------------------------------------------------|
E|---------------------------------------------------------|

E|-----------------------------------------------------------|
B|-----------------11-13b-13b-13b-rbp11h13-11-11-13-11-10-10-|
G|---10b-10~-10/12-------------------------------------------|
D|-8---------------------------------------------------------|
A|-----------------------------------------------------------|
E|-----------------------------------------------------------|




(b) = pre bend


Questions? Comments?
Corrections?
Get hold of me with the above address

Status Quo Menu

Status Quo News



«  Март 2017  »
ПнВтСрЧтПтСбВс
  12345
6789101112
13141516171819
20212223242526
2728293031

    Russian Fan Site Status Quo! 2008 2017 |