Status Quo - Belavista Man (intro)


Belavista Man (intro) Тип: табулатура


Belavista Man
Status Quo
TPAOY 2005


I like this song.
It's very bluesy and
sounds good live.

RICK:Capo 2nd Fret
FRANCIS:Standard


RICK:
E|-----0-0--0-0-------|
B|-0---0-0--0-0-2-0---|
G|-0h1-1-1--1-1-0-0h1-|
D|-0---0-0--0-0-2-0---|AND SO ON
A|-0h2-2-2--2-2-0-0h2-|
E|-0---0-0--0-0---0---|

FRANCIS:
E|--------------------------------------------------------------------------|
B|-----------------10---------------------------------------10--------------|
G|-9/11-11-11-9--------11-11-11-11-9--------9/11-11-11-9--------------------|
D|--------------11-------------------11------------------11-----9-9-9-9-9-7-|
A|--------------------------------------12----------------------------------|
E|--------------------------------------------------------------------------|

E|-------------------------------------------------------9----|
B|-------------------10------------------------------------10-|
G|-----9/11-11-11--------11-11-11-11-9--------9-11-11-11------|
D|----------------11-------------------11---------------------|
A|-9-9------------------------------------12------------------|
E|------------------------------------------------------------|

E|----------------|
B|----------------|
G|----------------|
D|-9-9-9-9--------|
A|---------12-9-9-|
E|----------------|


Status Quo Menu

Status Quo News



«  Декабрь 2016  »
ПнВтСрЧтПтСбВс
   1234
567891011
12131415161718
19202122232425
262728293031

    Russian Fan Site Status Quo! 2008 2016 |