Status Quo - Big Fat Mama (solo)


Big Fat Mama (solo) Тип: табулатура


Greetz,

Its not my own work, but since no one has placed it here, i just couldn't resist. Its
difficult, just needs a little practice!

Here y'all are (Status Quo - Big Fat Mama (Solo)):


Guitar solo:


A C
e|-----------------------------------------------------------------------|
b|-------------------------------------------8-10-10b12-10b12-10b12-10-8-|
g|-7b9-7b9-7p5---5------5-------5----9-9-9-9-----------------------------|
d|-------------7--7-5-7---7-5-7---7--------------------------------------|
a|-----------------------------------------------------------------------|
e|-----------------------------------------------------------------------|

D A
e|-8-8-8-8-8-5-------------------------5---------------5-5-5-5-|
b|-------------8-5---------------------5-------5-------5-5-5-5-|
g|-----------------7b9r7-5-7-7b9r7-7-7---7-5-----7-5-----------|
d|-------------------------------------------7-------7---------|
a|-------------------------------------------------------------|
e|-------------------------------------------------------------|

A C
e|--------------------------------------------------------------------|
b|---8-8-8-8-8-8-8/8-8-8-8-8-8-8-8-10-10-10-10-10-10-10-10-10-8-------|
g|-9-9-9-9-9-9-9-9/9-9-9-9-9-9-9-9--9--9--9--9--9--9--9--9------9-7-5-|
d|--------------------------------------------------------------------|
a|--------------------------------------------------------------------|
e|--------------------------------------------------------------------|

D A
e|----------------------8-8-8-10-8-----------------------|
b|----8-8----8-10-10-10------------10-8------------------|
g|-/9------9---------------------------9-7-5-7p5-----5-7-|
d|-----------------------------------------------7-7-----|
a|-------------------------------------------------------|
e|-------------------------------------------------------|

A C
e|--------------------8-8-8--------------------------|
b|-8-8-8h10-10-10p8---------10-8---8-10-10-10---8-10-|
g|------------------9------------9------------9------|
d|---------------------------------------------------|
a|---------------------------------------------------|
e|---------------------------------------------------|

D A
e|-----------------------------10b12-10b12-10b12-10b12-10p8----------|
b|-10-10-10---8-10-10-10-10-10------------------------------10p8-5/8-|
g|----------9--------------------------------------------------------|
d|-------------------------------------------------------------------|
a|-------------------------------------------------------------------|
e|-------------------------------------------------------------------|

A C
e|-/17-17-17-15-------------------------------------------------|
b|--------------17-15-13h14-------------13-15-15b17-15-13-15b17-|
g|--------------------------14-12-12-14-------------------------|
d|--------------------------------------------------------------|
a|--------------------------------------------------------------|
e|--------------------------------------------------------------|

D
e|----------------------------------------------------------------|
b|-15-13-15p13----------13-15-15b17-15-13-15b17-15-13-15b17-15-13-|
g|-------------14-14-14-------------------------------------------|
d|----------------------------------------------------------------|
a|----------------------------------------------------------------|
e|----------------------------------------------------------------|

A
e|-----------------------------------------------------|
b|-15b17-15-13--13p12----------------------------13-15-|
g|--------------------14-12-14-------------12-14-------|
d|-----------------------------12-11-12-14-------------|
a|-----------------------------------------------------|
e|-----------------------------------------------------|

A C
e|----------------------------------------------------------|
b|-15b17-15-13-15b17-15-13-15p13-------13-15-13-15b17-15-13-|
g|-------------------------------14-14----------------------|
d|----------------------------------------------------------|
a|----------------------------------------------------------|
e|----------------------------------------------------------|

D
e|----------------------------------------------------------|
b|-15b17-15-13-15p13-------13-14-15-15b17-15-13-15b17-15-13-|
g|-------------------14-14----------------------------------|
d|----------------------------------------------------------|
a|----------------------------------------------------------|
e|----------------------------------------------------------|

A
e|-------------------------------------------------------------------------|
b|-15b17-15-13-15b17-15b17-15b17-15b17-15b17-15b17-15b17-15b17-15b17-15b17-|
g|-------------------------------------------------------------------------|
d|-------------------------------------------------------------------------|
a|-------------------------------------------------------------------------|
e|-------------------------------------------------------------------------|


e|----------------------------------20b22-20b22-20b22-20b22--------------|
b|-15b17-15b17-15-13----------13-15--------------------------------------|
g|-------------------14-12-14--------------------------------19b21r19-17-|
d|-----------------------------------------------------------------------|
a|-----------------------------------------------------------------------|
e|-----------------------------------------------------------------------|

C
e|--------------------17-17-------17-17-------17-17-------17-17-------17-|
b|--------------------17-17-------17-17-------17-17-------17-17-------17-|
g|----------17--19b21-------19b21-------19b21-------19b21-------19b21----|
d|-19-17-19--------------------------------------------------------------|
a|-----------------------------------------------------------------------|
e|-----------------------------------------------------------------------|

D
e|-------17-17-------17-17-------17-17-------17---------------------|
b|-------17-17-------17-17-------17-17-------17---------------------|
g|-19b21-------19b21-------19b21-------19b21----19b21r19-17---------|
d|----------------------------------------------------------19-17---|
a|------------------------------------------------------------------|
e|------------------------------------------------------------------|

Status Quo Menu

Status Quo News



«  Декабрь 2016  »
ПнВтСрЧтПтСбВс
   1234
567891011
12131415161718
19202122232425
262728293031

    Russian Fan Site Status Quo! 2008 2016 |