Big Man Тип: табулатура


Big Man
Status Quo
1+9+8+2 1982



E|-------------|----------|
B|-------------|----------|
G|-------------|----------|
D|---0-2-0-----|-0-2------|
A|-------------|----------|
E|-0-------3-0-|------0-3-|


Em
E|-------------|----------|
B|-------------|----------|
G|-------------|----------|
D|---0-2-0-----|-0-2------|
A|-------------|----------|
E|-0-------3-0-|------0-3-|etc

This riff is also used for the choruses.

Status Quo Menu

Status Quo News




    Russian Fan Site Status Quo! 2008 2018 |