Status Quo - Blessed Are The Meek


Blessed Are The Meek Тип: табулатура


Blessed Are The Meek
Status Quo


Intro and outro:

E||-------------------|----------------|----------------|----------------|
B||*------------------|----------------|----------------|----------------|
G||-------------------|----------------|----------------|----------------|
D||----------/8-8-8-6-|9---------------|-------/6-6-6---|8---6-----------|
A||*(9)---------------|----------------|--------------9-|------9---------|
E||-------------------|----------------|----------------|----------------|


E|----------------|----------------|-----------------||
B|----------------|----------------|----------------*||
G|----------------|----------------|-----------------||
D|------------6---|8-----------6---|8-------8-6------||
A|-------/9-9---9-|-------/9-9---9-|------------9-8-*||
E|----------------|----------------|-----------------||


Solo: .
E|---------|----------------|-----------------|
B|---------|----------------|--7-7---7---9b11-|
G|---------|--------------6-|8----------------|
D|-----4---|4---4---4/6-8---|-----------------|
A|/4-6---6-|----------------|-----------------|
E|---------|----------------|-----------------|


.
E|--9---7---6-----|----------------|----------------|
B|----9---9---9p7-|--9-9-7-7\------|----------------|
G|----------------|8---------------|-/4-4-3-3-1-1---| (. = short)
D|----------------|----------------|--------------4-|
A|----------------|----------------|----------------|
E|----------------|----------------|----------------|



E|----------------|----------------|----------------|
B|----------------|----------------|----------------|
G|--4-3-1---------|----------------|----------------|
D|--------4-3-1-3-|3---4-4---------|4-6-6b8r6-4-----|
A|----------------|-------------4h6|----------------|
E|----------------|----------------|----------------|



E|----------------|----------------|--9------9------|
B|----------------|----7-7----9b11-|----9b11---9b11-|
G|----------------|6---------------|----------------|
D|------6-8-6-8-9-|----------------|----------------|
A|9-8-9-----------|----------------|----------------|
E|----------------|----------------|----------------|


E|----------------|---9---7---6-----|----------------|
B|r9p7-9---7----9b|11---9---9---9p7-|--9---7---------|
G|-------8--------|-----------------|8---8---8p6-----|
D|----------------|-----------------|------------8p6-|
A|----------------|-----------------|----------------|
E|----------------|-----------------|----------------|

1+ 2+ 3 + 1 + .
E|-----------------|-----------------------|----------------|
B|-----------------|----9b11r9-9b11-r9p7-9-|7---------------|
G|---------------6-|8----------------------|----------------|
D|-------4-6-6/8---|-----------------------|----------------|
A|9---4h6----------|-----------------------|----------------|
E|-----------------|-----------------------|----------------|


Fills in second verse:

fill 1 and 3:
E|----------9---------|--------------------|
B|----11h12---12-11p9-|--------------------|
G|--------------------|-11~~~~~~~----------|
D|--------------------|--------------------|
A|--------------------|--------------------|
E|--------------------|--------------------|

fill 2:
E|-------------------|-------------------|----------------|
B|-------------------|------------9b11r9-|7~~~~~~~~-------|
G|--------6-6-8b10r8-|6------------------|----------------|
D|----8h9------------|-------------------|----------------|
A|-------------------|-------------------|----------------|
E|-------------------|-------------------|----------------|


fill 4:
E|--------------------|---------------------|----------------|
B|----11p9------------|---------------------|----------------|
G|---------11p10-8----|11p10-8--------------|----------------|
D|-----------------11-|--------11-8---------|----------------|
A|--------------------|-------------11-9-11-|9---------------|
E|--------------------|---------------------|----------------|

Status Quo Menu

Status Quo News



«  Декабрь 2016  »
ПнВтСрЧтПтСбВс
   1234
567891011
12131415161718
19202122232425
262728293031

    Russian Fan Site Status Quo! 2008 2016 |