Status Quo - Blue Eyed Lady


Blue Eyed Lady Тип: табулатура


Blue Eyed Lady
Status Quo


REMARK: H = b

7. 6. 5. 4. 3. 2. 1. <= frets
-----|-----|-----|--X--|-----|-----|-----|-----| E
-----|-----|--0--|--0)-|-----|-----|-----|-----| A
-----|--0--|-----|--0)-|-----|-----|-----|-----| D
-----|-----|-----|--0)-|-----|-----|-----|-----| G
-----|--0--|-----|--0)-|-----|-----|-----|-----| H
-----|-----|-----|--X--|-----|-----|-----|-----| E

D#dim


Intro/Instrumental

e|__________________________________________________________________|
b|________________________3_2___6_5________________________3_2__6_5_|
g|__________________________________________________________________|
d|_________3_2_0_5_3_2_0____________________3_2_0_5_3_2_0___________|
a|_______0________________________________0_________________________|
e|_0_3_4____________________________0_3_4___________________________|


e|__________________________________________________________________|
b|________________________3_2___6_5________________________3_2__6_5_|
g|__________________________________________________________________|
d|_________3_2_0_5_3_2_0____________________3_2_0_5_3_2_0___________|
a|_______0________________________________0_________________________|
e|_0_3_4____________________________0_3_4___________________________|


e|______7_6__10_9__13_12___________|
b|_9_8_____________________________|
g|_________________________________|
d|_________________________________|
a|_________________________________|
e|_________________________________|


e|_________________________________________________________________________|
b|_________________________________________________________________________|
g|________________9b10r9_7_____________________________9b10r9_7____________|
d|_____7_9b10r9_7__________9_9_10_9_7_______7_9b10r9_7__________9_9_10_9_7_|
a|_7_9__________________________________7_9________________________________|
e|_________________________________________________________________________|

with the whole band:
A E H C H A A E H C H A
e|_________________________________________________________________________|
b|_________________________________________________________________________|
g|________________9b10r9_7_____________________________9b10r9_7____________|
d|_____7_9b10r9_7__________9_9_10_9_7_______7_9b10r9_7__________9_9_10_9_7_|
a|_7_9__________________________________7_9________________________________|
e|_________________________________________________________________________|

C
e|_________________________________________________________________________|
b|_________________________________________________________________________|
g|__8h9_8h9_8h9_8h9_8h9_8h9_8h9_8h9_8h9_8h9_8h9_8h9_8h9_8h9_8h9_8h9________|
d|_________________________________________________________________________|
a|_________________________________________________________________________|
e|_________________________________________________________________________|

C G
e|____________________________________________|
b|____13_11_10________________________________|
g|_____________12_10_9_______12_10_9__________| Played three times!
d|_10__________________12____________12_10_9__|
a|________________________10__________________|
e|____________________________________________|

E A
e|_________________________________________________________________________|
b|_________________________________________________________________________|
g|_________________________________________________________________________|
d|_9_9_9_9_9_9_9_9_9_9_9_9_9_9_9_9________2___4___5___4___2___4___5_______2...etc
a|_7_7_7_7_7_7_7_7_7_7_7_7_7_7_7_7________0_0_0_0_0_0_0_0_0_0_0_0_0_______0...etc
e|_0_0_0_0_0_0_0_0_0_0_0_0_0_0_0_0__0_3_4___________________________0_3_4__|



Melody:

A

e|----0-0-0-------|----------------|----0-0-0-------|----------------|
b|----------3---3-|3-2-------------|----------3---3-|3-2-0-2-2---0-2-|
g|----------------|----------------|----------------|----------------|
d|----------------|----------------|----------------|----------------|
a|----------------|----------------|----------------|----------------|
e|----------------|----------------|----------------|----------------|
Lit-tle BlueEyed lady How come your all alone I've been


D A

e|----------------|----------------|----------------|----------------|
b|0-2-0-----------|--0-2-0-------2-|2---------------|----------------|
g|------2-2-------|----------2-----|----------------|--------------2-|
d|----------------|----------------|----------------|----------------|
a|----------------|----------------|----------------|----------------|
e|----------------|----------------|----------------|----------------|
ask- ing No one seems to know to

H D A

e|----------------|----------------|----------------|----------------|
b|0---2---3---2---|----------------|--2-------------|----------------|
g|--------------2-|2---2-2-1-------|----------------|----------------|
d|----------------|----------2---4-|4---------------|----------------|
a|----------------|----------------|----------------|----------------|
e|----------------|----------------|----------------|----------------|

whom do you belong little blue eyed la-dy

Verse 2
The band are really moving
Everyone is grooving around little lady
You're still sitting down
Excuse me if you will little blue eyed lady

A E H C H A A E H C H A
e|_________________________________________________________________________|
b|_________________________________________________________________________|
g|________________9b10r9_7_____________________________9b10r9_7____________|
d|_____7_9b10r9_7__________9_9_10_9_7_______7_9b10r9_7__________9_9_10_9_7_|
a|_7_9__________________________________7_9________________________________|
e|_________________________________________________________________________|


e|_________|
b|_________|
g|_________| Played three times!
d|_________|
a|________0|
e|__0_3_4__|


Verse 3
The party's nearly over
Your eyes still read the same are you looking
For one who never came
Are you a passing cloud or a new found baby

Verse 4
Little new found baby
How come your all alone Ive been asking
No one seems to know
Are you a passing cloud little blue eyed lady

C G
e|____________________________________________|
b|____13_11_10________________________________|
g|_____________12_10_9_______12_10_9__________| Played three times!
d|_10__________________12____________12_10_9__|
a|________________________10__________________|
e|____________________________________________|

E
e|__________________________________|
b|__________________________________|
g|__________________________________|
d|_9_9_9_9_9_9_9_9_9_9_9_9_9_9_9_9__|
a|_7_7_7_7_7_7_7_7_7_7_7_7_7_7_7_7__|
e|_0_0_0_0_0_0_0_0_0_0_0_0_0_0_0_0__|


Guitar solo: line till fade
A D
E|------5-5-----5-5----5-5----5----------8-10-8-10b12-10b12-|
H|------5-5-----5-5----5-5----5-------10--------------------|
G|-7b9-----7b9-----7b9----7b9---7r5-------------------------|
D|----------------------------------------------------------|
A|----------------------------------------------------------|
E|----------------------------------------------------------|
A
E|-10b12-10b12-10b12r10-8-10-8--10b12-10b12-10-8------------|
H|-----------------------------------------------8b10-8b10--|
G|----------------------------------------------------------|
D|----------------------------------------------------------|
A|----------------------------------------------------------|
E|----------------------------------------------------------|
H
E|------------------------------12b14-12-10-12-10-12-12b14-12b14r12p10-|
H|-8b10-8b10-8b10-8-8b10-8-8b10----------------------------------------|
G|---------------------------------------------------------------------|
D|---------------------------------------------------------------------|
A|---------------------------------------------------------------------|
E|---------------------------------------------------------------------|
E A
E|---------12b14-12b14-12b14r12-10----------------------|
H|-12-12---------------------------12-10----10----10-10-|
G|---------------------------------------11----11-------|
D|------------------------------------------------------|
A|------------------------------------------------------|
E|------------------------------------------------------|
D D#dim
E|-------------------------------------------------------|
H|-12b14-12b14-12b14r12-10-13b15-13b15-13b15-13b15b13-10-|
G|-------------------------------------------------------|
D|-------------------------------------------------------|
A|-------------------------------------------------------|
E|-------------------------------------------------------|
A E A
E|-5-5-------------------------------5-5-5-5-5--|
H|-5-5-------------------------------5-5-5-5-5--|
G|-----7-5-7-5----------------------------------|
D|-------------7-5-7-5---5-7--------------------|
A|---------------------7-----7-5-7-5------------|
E|----------------------------------------------|
A D A
E|-3-3-3-3-3-3-3-5-5-5-5-5-5-5-5-5-5-5-5-7-5-7b8-7-5---|
H|-5-5-5-5-5-5-5-5-5-5-5-5-5-5-5-5-5-5-------------8-5-|
G|-----------------------------------------------------|
D|-----------------------------------------------------|
A|-----------------------------------------------------|
E|-----------------------------------------------------|
H E
E|-----------------------------------------------------------|
H|--------------------------------------------10-12-10-12b13-|
G|-7-5---------------9b11-9b11-9b11r9-7-9-/11----------------|
D|-----7-5---5-7-5-------------------------------------------|
A|---------7-------------------------------------------------|
E|-----------------------------------------------------------|
A
E|-------------------------------------------------------------|
H|-12b13-12b13r12-10-12b13-12b13-12-12-10-10-12-10-12b13-12b13-|
G|-------------------------------------------------------------|
D|-------------------------------------------------------------|
A|-------------------------------------------------------------|
E|-------------------------------------------------------------|
D D#dim
E|-----------12b14-12b14-12b14-12b14r12-10-12-12b14--12b14-|
H|-12-10-12------------------------------------------------|
G|---------------------------------------------------------|
D|---------------------------------------------------------|
A|---------------------------------------------------------|
E|---------------------------------------------------------|
A E A
E|-12b14r12-10-------------------------------------------5-|
H|-------------12-10-----------------12r11r10------------5-|
G|-------------------11-9-------9-11----------11-9-5h6-----|
D|------------------------11h12------------------------7---|
A|---------------------------------------------------------|
E|---------------------------------------------------------|

Status Quo Menu

Status Quo News



«  Декабрь 2016  »
ПнВтСрЧтПтСбВс
   1234
567891011
12131415161718
19202122232425
262728293031

    Russian Fan Site Status Quo! 2008 2016 |