Status Quo - Caroline


Caroline Тип: басс табулатура


-------------------------------------------------------------------------------
Status Quo - Caroline
-------------------------------------------------------------------------------
Tabbed by: Chris Melia
Email: 01meliac@stwilfs.net

Tuning: Standard

heres for all you quo fans who play bass, simple song really just follow it note for
i have indicated the live bits etc....

PLease leave feedback

alsp check out my other quo bass tabs!!!

MAIN RIFF (WAIT FOR DRUMS THEN)

G|---------------------------------------------------------------------------|
D|---\33333333333333333333333333333333/8888888888888888\3333333333333333-----|
A|---------------------------------------------------------------------------|
E|---------------------------------------------------------------------------|


G|---------------------------------------------------------------------------|
D|---/1010101010101010\88888888\3333333333333312-----------------------------|
A|---------------------------------------------------------------------------|
E|---------------------------------------------------------------------------|


G|---------------------------------------------------------------------------|
D|---33333333333333333333333333333330------------------3333333333333330------|
A|------------------------------------1111111111111111-----------------------|
E|---------------------------------------------------------------------------|


G|---------------------------------------------------------------------------|
D|---------------------3333333333333312--------------------------------------|
A|---33333333-11111111-------------------------------------------------------|
E|---------------------------------------------------------------------------|

VERSE 1

G|---------------------------------------------------------------------------|
D|---3333333333333330------------------33333330----------33333333------12----|
A|--------------------1111111111111111----------33333333----------33333------|
E|---------------------------------------------------------------------------|

VERSE 2

G|---------------------------------------------------------------------------|
D|---3333333333333330------------------33333330----------33333333------------|
A|--------------------1111111111111111----------33333333----------3333333----|
E|---------------------------------------------------------------------------|

CHORUS

G|---------------------------------------------------------------------------|
D|---2h333-2h333-2h3333333-2h333-2h333-2h3333333-----------------------------|
A|-----------------------------------------------1111111111111111------------|
E|---------------------------------------------------------------------------|


G|---------------------------------------------------------------------------|
D|---2h333-2h333-2h3333333-------------------2h333-2h333------12-------------|
A|-------------------------33333333-11111111-------------33333---------------|
E|---------------------------------------------------------------------------|

VERSE 3

G|---------------------------------------------------------------------------|
D|---3333333333333330------------------33333330----------33333333------12----|
A|--------------------1111111111111111----------33333333----------33333------|
E|---------------------------------------------------------------------------|


VERSE 4

G|---------------------------------------------------------------------------|
D|---3333333333333330------------------33333330----------33333333------------|
A|--------------------1111111111111111----------33333333----------3333333----|
E|---------------------------------------------------------------------------|

CHORUS

G|---------------------------------------------------------------------------|
D|---2h333-2h333-2h3333333-2h333-2h333-2h3333333-----------------------------|
A|-----------------------------------------------1111111111111111------------|
E|---------------------------------------------------------------------------|


G|---------------------------------------------------------------------------|
D|---2h333-2h333-2h3333333-------------------2h333-2h333------12-------------|
A|-------------------------33333333-11111111-------------33333---------------|
E|---------------------------------------------------------------------------|

SOLO

G|---------------------------------------------------------------------------|
D|---33333333333333333333333333333333/8888888888888888\3333333333333333------|
A|---------------------------------------------------------------------------|
E|---------------------------------------------------------------------------|


G|---------------------------------------------------------------------------|
D|---1010101010101010\88888888\3333333333333312------------------------------|
A|---------------------------------------------------------------------------|
E|---------------------------------------------------------------------------|

MIDDLE

B|---------------------------------------------------------------------------|
G|---33333333333333123333333333333312----------------------------------------|
D|---------------------------------------------------------------------------|
A|---------------------------------------------------------------------------|
E|---------------------------------------------------------------------------|

VERSE 5 (SAME AS VERSE 1)

G|---------------------------------------------------------------------------|
D|---3333333333333333------------------33333333----------33333333------------|
A|--------------------1111111111111111----------33333333----------3333333----|
E|---------------------------------------------------------------------------|

CHORUS

G|---------------------------------------------------------------------------|
D|---2h333-2h333-2h3333333-2h333-2h333-2h3333333-----------------------------|
A|-----------------------------------------------1111111111111111------------|
E|---------------------------------------------------------------------------|


G|---------------------------------------------------------------------------|
D|---2h333-2h333-2h3333333-------------------2h333-2h333-2h333-2h333---------|
A|-------------------------33333333-11111111---------------------------------|
E|---------------------------------------------------------------------------|

MAIN RIFF (QUIET)

G|---------------------------------------------------------------------------|
D|---33333333333333333333333333333333/8888888888888888\3333333333333333------|
A|---------------------------------------------------------------------------|
E|---------------------------------------------------------------------------|

* PLAY SAME AS BEFORE UNLESS PLAYING THE LIVE VERSION WHERE YOU SLIDE TO 15

G|---------------------------------------------------------------------------|
D|---1010101010101010\88888888\*33333333/15\---------------------------------|
A|---------------------------------------------------------------------------|
E|---------------------------------------------------------------------------|

{MAIN RIFF (NO BASS)} - ONLY FOR LIVE VERSION

MAIN RIFF (BACK TO FULL VOLUME)

G|---------------------------------------------------------------------------|
D|---33333333333333333333333333333330------------------3333333333333330------|
A|------------------------------------1111111111111111-----------------------|
E|---------------------------------------------------------------------------|


G|---------------------------------------------------------------------------|
D|---------------------33333333333333----------------------------------------|
A|---33333333-11111111-------------------------------------------------------|
E|-----------------------------------00--------------------------------------|

LAST MAIN RIFF AND ENDING

G|---------------------------------------------------------------------------|
D|-----------------------------------------------------3333333333333330------|
A|------------------------------------1111111111111111-----------------------|
E|---11111111111111111111111111111111----------------------------------------|


G|-----------------------3322110---------------------------------------------|
D|---------------------33-------1233\----------------------------------------|
A|---33333333-11111111-------------------------------------------------------|
E|---------------------------------------------------------------------------|


| / slide up
| \ slide down
| h hammer-on
| p pull-off
| ~ vibrato
| + harmonic
| x Mute note
========================================
=======================================

LYRICS

If you want to turn me onto
Anything you really want to
Turn me onto your love your love

If the night-time is the right time
Anytime of yours is my time
We can find time for love sweet love

Come on sweet Caroline
You

Status Quo Menu

Status Quo News



«  Декабрь 2016  »
ПнВтСрЧтПтСбВс
   1234
567891011
12131415161718
19202122232425
262728293031

    Russian Fan Site Status Quo! 2008 2016 |