Status Quo - Caroline2


Caroline2 Тип: табулатура


Artist: Status Quo

Song: Caroline

Tabbed by: Michael Acheson

Guitar 1:

e|-------------------|
b|-------------------|
g|-------------------|
D|-------------------|
A|-15-17-15-17-15-17-|
E|-13-13-13-13-13-13-| etc,etc.

This goes on for about eight or ten bars then:

Guitar 2:

e|-----------------|
b|-----------------|
g|---3-2---3-2-3-2-|
D|-3-----3---------|
A|-----------------|
E|-----------------|

The above times for then:

e|-----------------|
b|-----------------|
g|---3-1---3-1-3-1-|
D|-3-----3---------|
A|-----------------|
E|-----------------|

Then back to:

e|-----------------|
b|-----------------|
g|---3-2---3-2-3-2-|
D|-3-----3---------|
A|-----------------|
E|-----------------|

Then there's a little riff:

e|---------------------------------------------|
b|---------------------------------------------|
g|---3-2-3-5-3-2-1-0-0-0-0-0-1---3-2---3-2-3-2-|
D|-----------------------------3-----3---------|
A|---------------------------------------------|
E|---------------------------------------------|

Status Quo Menu

Status Quo News



«  Декабрь 2016  »
ПнВтСрЧтПтСбВс
   1234
567891011
12131415161718
19202122232425
262728293031

    Russian Fan Site Status Quo! 2008 2016 |