Status Quo - Counts Is Love


Counts Is Love Тип: табулатура


Song:All That Counts
By:Status Quo
Album:Party 'aint Over Yet 2005



As this is from memory, I can't remember if this is harmonised or not.


Intro
F# C# B F#
E|----------------------------------------------|
B|-2-2---2-2----2-2---2/4\2---------------------|
G|-----3-----3------3--------1-1---1h3-1--4-4-3-|
D|-------------------------------3--------------|
A|----------------------------------------------|
E|----------------------------------------------|

Lick at 1:20
F#
E|-------------|
B|-------------|
G|-------------|
D|-6b-rb-4-----|
A|---------6-4-|
E|-------------|

Status Quo Menu

Status Quo News



«  Декабрь 2016  »
ПнВтСрЧтПтСбВс
   1234
567891011
12131415161718
19202122232425
262728293031

    Russian Fan Site Status Quo! 2008 2016 |