Dreamin (intro) Тип: табулатура


Dreamin'
Status Quo
Ain't Complaining 1988


Main Riff (Keyboard)

E|------------------------|
B|-----6-7~--------6-7~-6-|
G|-6-8------8--6-8--------|
D|------------------------|
A|------------------------|
E|------------------------|

OR

E|------------------------|
B|-----6-6b--------6-6b-6-|
G|-6-8------8--6-8--------|
D|------------------------|
A|------------------------|
E|------------------------|





Status Quo Menu

Status Quo News




    Russian Fan Site Status Quo! 2008 2018 |