Electric Arena Тип: табулатура


Tabbed By: Belavista Man
On: 19/09/07
E-mail: anthonybentley@hotmail.co.uk

Intro:
Em Am Bm Em
e|--------------------------------------------------------------------------|
B|-------12----------------12-----11/12----------------11/12----------------|
G|----12----14-12-------12----14~-------14-12-14-12-14-------14-12-12-12----|
D|-/14-------------14-14-------------------------------------------------14-|
A|--------------------------------------------------------------------------|
E|--------------------------------------------------------------------------|

Bm Em Am Bm Em Bm
e|-------------------------------------------------------------------------|
B|---------------------------12----------------------11/12-----------------|
G|-14b-16r-12-12-12-------12----14~-14br-12-14-12-14-------14-12-12-12-----|
D|------------------14-14----------------------------------------------14\-|
A|-------------------------------------------------------------------------|
E|-------------------------------------------------------------------------|

Em
I have been there
C
I've been seen there
G Bm
And I keep goin on
Em
Telling anyone
C
Who'll keep hanging on
Am Bm
That I don't mind at all

Em
Electric Arena
Am
Wired for sound
Bm
End of the alleyway
Em Bm
Back end of any town
Em
Electric Arena
Am
I loved you so
Bm
Taught me the kind of things
Em
My mama should never know

Intro thing:
Em Am Bm
e|---------------------------------------------------------------------------|
B|--------12----------------12-----11/12-------------------------12----------|
G|-----12----14-12-------12----14~-------14-12-14-12-14-------12----14-12-12-|
D|-/14-------------14-14-----------------------------------14----------------|
A|------------------------------------------------------14-------------------|
E|---------------------------------------------------------------------------|
Em Bm
e|----------|
B|----------|
G|-12-12----|
D|-------14-|
A|----------|
E|----------|

Em
Ooh my memory
C
Always takes me
G Bm
Back to way back when
Em
Things were happening
C
Always happening
Am Bm
All because of you

N. Em
Electric Arena
Am
Wired for sound
Bm
End of the alleyways
Am Bm
Back end of any town
Em
Electric Arena
Am
I loved you so
Bm
Taught me the kind of things
Em
My mama should never know

C Em
When I'm feeling blue
C Em
I sometimes think of you
C
Then I'm feeling so much better

Solo:
Em Am Bm
e|-15br-15-14-12----12-12--15br-15-14-12----12~---------------------|
B|---------------14----------------------14-----14br-14-13-13-12-12-|
G|------------------------------------------------------------------|
D|------------------------------------------------------------------|
A|------------------------------------------------------------------|
E|------------------------------------------------------------------|
Em Bm
e|-15br-15-14-12----12-12-|
B|---------------14-------|
G|------------------------|
D|------------------------|
A|------------------------|
E|------------------------|

Play that twice, then play two bars of B minor

Em
I'm wondering
C
Was it better then
G Bm
Or is it all the same
Em
Was it happening
C
And still happening
Am Bm
All because of you

N. Em
Electric Arena
Am
Wired for sound
Bm
End of the alleyways
Em Bm
Back end of any town
Em
Electric Arena
Am
I loved you so
Bm
Taught me the kind of things
Em
My mama should never know


Play two rounds of the intro
Then play the solo until fade

Status Quo Menu

Status Quo News



«  Ноябрь 2017  »
ПнВтСрЧтПтСбВс
  12345
6789101112
13141516171819
20212223242526
27282930

    Russian Fan Site Status Quo! 2008 2017 |