Status Quo - Elizabeth Dreams (intro)


Elizabeth Dreams (intro) Тип: табулатура


Elizabeth Dreams
Status Quo
Picturesque Matchstickable Messages 1968




Gtr.1
E|-9h10-9h10-9h10-9h10-9h10-9h10-9h10-9h10-9h10-9h10-9h10-9h10-9h10-9h10-|
B|-----------------------------------------------------------------------|
G|-----------------------------------------------------------------------|
D|-----------------------------------------------------------------------|
A|-----------------------------------------------------------------------|
E|-----------------------------------------------------------------------|

Gtr.2
E|-----------------------------------------------------------------------|
B|-----------------------------------------------------------------------|
G|-----------------------------------------------------------------------|
D|-----------------------------------------------------------------------|
A|-----------------------------------------12------------------10--------|
E|-----------------------------------------10------------------8---------|

Bass
G|-----------------------------------------------------------------------|
D|-----------------------------------------------------------------------|
A|-----------------------------------------5-------------------3---------|
E|-----------------------------------------------------------------------|


Gtr.1
E|-9h10-9h10-9h10-9h10-9h10-9h10-9h10-9h10-9h10-9h10-9h10-9h10-9h10-9h10-|
B|-----------------------------------------------------------------------|
G|-----------------------------------------------------------------------|
D|-----------------------------------------------------------------------|
A|-----------------------------------------------------------------------|
E|-----------------------------------------------------------------------|

Gtr.2
E|-----------------------------------------------------------------------|
B|-----------------------------------------------------------------------|
G|-----------------------------------------------------------------------|
D|-----------------------------------------------------------------------|
A|-----------9-------------------5-------------------12------------------|
E|-----------7-------------------3-------------------10------------------|

Bass
G|-----------------------------------------------------------------------|
D|-----------------------------------------------------------------------|
A|-----------2---------------------------------------5-------------------|
E|-------------------------------3---------------------------------------|




Status Quo Menu

Status Quo News



«  Февраль 2017  »
ПнВтСрЧтПтСбВс
  12345
6789101112
13141516171819
20212223242526
2728

    Russian Fan Site Status Quo! 2008 2017 |