Status Quo - Everything


Everything Тип: табулатура


Everything
Status Quo


Fingerpicking part
==================

Intro:

E|----------------|----------------|
B|----------------|----------------|
G|--0---0---0---0-|--0---0---0---0-|
D|----------------|----------------|
A|3---3---3---3---|3---3---3---3---|
E|----------------|----------------|

Verse 1:
E|----------------|----------------|
B|----------------|----------------|
G|--0---0---0---0-|--0---0---0---0-|
D|----------------|----------------|
A|3---3---3---3---|3---3---3---3---|
E|----------------|----------------|


E|----------------|----------------|
B|----------------|----------------|
G|--1---1---1---1-|--1---1---1---1-|
D|----------------|----------------|
A|3---3---3---3---|3---3---3---3---|
E|----------------|----------------|


E|----------------|----------------|
B|----------------|----------------|
G|--2---2---2---2-|--2---2---2---2-|
D|----------------|----------------|
A|3---3---3---3---|3---3---3---3---|
E|----------------|----------------|


E|----------------|----------------|
B|----------------|----------------|
G|--3---3---3---3-|--3---3---3---3-|
D|----------------|----------------|
A|3---3---3---3---|3---3---3---3---|
E|----------------|----------------|


E|----------------|----------------|
B|----------------|----------------|
G|--2---2---2---2-|--1---1---1---1-|
D|----------------|----------------|
A|3---3---3---3---|3---3---3---3---|
E|----------------|----------------|


E|----------------|----------------|
B|----------------|----0-------3---|
G|--0---0---0---0-|--0---0---0-----|
D|----------------|----------------|
A|3---3---3---3---|--------------2-|
E|----------------|3-------3-------|

For verse 2, repeat verse 1 and replace the last bar by:

E|----------------|
B|----------------|
G|----------------|
D|--0-------------| And then go to the bridge
A|----2---2-------|
E|3-----3-----3---|


Bridge:
E|----0---0---0---|0---0---0-------|
B|----1---1---1---|1---1---1-------|
G|----0---0---0---|0---0---0-------|
D|----------------|----------------|
A|3---3---3---3---|3---3---3-------|
E|----------------|------------3---|


E|----0---0---0---|0---0---0-------|
B|----0---0---0---|0---0---0-------|
G|----0---0---0---|0---0---0-------|
D|----------------|----------------|
A|2---2---2---2---|2---2---2-------|
E|----------------|------------3---|


E|----0---0---0---|0---0---0-------| (it would have been logical to
B|----------------|----------------| place a Am-chord here, but I
G|----2---2---2---|2---2---2-------| can't hear a third. That's why
D|----2---2---2---|2---2---2-------| I've placed a Am-chord without
A|0---0---0---0---|0---0---0---0---| a third)
E|----------------|----------------|

3x
E||-----1---1---1---|1---1---1--------||
B||*----3---3---3---|3---3---3-------*||
G||-----2---2---2---|2---2---2--------||
D||-0---0---0---0---|0---0---0--------||
A||*----------------|------------0---*||
E||-----------------|-----------------||


E|----1---1---1---|1---1---1---1---|
B|----3---3---3---|3---3---3---3---|
G|----2---2---2---|2---2---2---2---|
D|0---0---0---0---|0---0---0---0---|
A|----------------|----------------|
E|----------------|----------------|


E|----0-------0---|0-------0-------|
B|----1-------1---|1-------1-------|
G|----0-------0---|0-------0-------|
D|----------------|----------------|
A|3---3---3---3---|3---3---3---3---|
E|----------------|----------------|


E|0---------------|----------------|
B|1-------4-------|3-------4-------|
G|0---------------|----------------|
D|--------4-------|3-------4-------|
A|3-------2-------|1-------2-------|
E|----------------|----------------|


E|----------------|----------------|
B|----5-----5-----|5-----5---------|
G|----------------|----------------|
D|--5-----5-----5-|----5-----------|
A|3-----3-----3---|--3-----3-------|
E|----------------|------------3---|


E|----------------|----------------|
B|----8-----8-----|8-----8---------|
G|--9-----9-----9-|----9-----------|
D|----------------|----------------|
A|----------------|----------------|
E|7-----7-----7---|--7-----7---0---|


E|----3-----3-----|3-----3-3-------|
B|----------------|----------------|
G|--2-----2-----2-|----2---2-------|
D|----------------|----------------|
A|0-----0-----0---|--0---------0---|
E|----------------|----------------|

3x
E||-----1-----1-----|1-----1----------||
B||*----------------|----------------*||
G||---2-----2-----2-|----2------------||
D||-0-----0-----0---|--0-----0--------||
A||*----------------|------------0---*||
E||-----------------|-----------------||


E|----1-----1-----|1-----1---------|
B|----------------|----------------|
G|--2-----2-----2-|----2-----------|
D|0-----0-----0---|--0-----0---0---|
A|----------------|----------------|
E|----------------|----------------|


E|----------------|----------------|
B|----5-----5-----|5-----5---------|
G|----------------|----------------|
D|--5-----5-----5-|----5-----------|
A|3-----3-----3---|--3-----3-------|
E|----------------|------------3---|


E|----------------|----------------|
B|5-------4-------|3-------4-------|
G|----------------|----------------|
D|5-------4-------|3-------4-------|
A|3-------2-------|1-------2-------|
E|----------------|----------------|


Repeat verse 1 and 2 and replace the last bar of verse 2 by:

E|----------------|----------------|
B|----------------|----------------|
G|--0---0---0---0-|--3---3---3---3-|
D|----------------|----------------|
A|3---3---3---3---|3---3---3---3---|
E|----------------|----------------|


E|----------------|----------------|0---------------|
B|----------------|----------------|1---------------|
G|--2---2---2---2-|--0---0---0---0-|0---------------|
D|----------------|----------------|----------------|
A|3---3---3---3---|3---3---3---3---|3---------------|
E|----------------|----------------|----------------|


Melodic guitarline:
===================

Begins with two bars rest!

Verse 1
E|----------------|----------------|
B|----------------|----------------|
G|----------------|----------------|
D|----------------|----------------|
A|3---------------|----------------|
E|----------------|----------0-1-3-|


E|----------------|----------------|
B|----------------|----------------|
G|----------------|----------------|
D|----------------|----------------|
A|----------------|----------------|
E|4---------------|----------1-3-4-|


E|----------------|----------------|
B|----------------|----------------|
G|----------------|----------------|
D|----------------|----------------|
A|----------------|----------------|
E|5---------------|----------4-5---|


E|----------------|----------------|
B|----------------|----------------|
G|----------------|----------------|
D|----------------|----------------|
A|----------------|----------------|
E|6---------------|----6---8---6---|


E|----------------|----------------|
B|----------------|----------------|
G|----------------|----------------|
D|----------------|----------------|
A|----------------|----------------|
E|5-----------5---|4-------6---4---|


E|----------------|----------------|
B|----------------|----------------|
G|----------------|----------------|
D|----------------|----------2-3-5-|
A|----------------|----2-3-5-------|
E|3---------------|3-5-------------|

For verse 2, repeat verse 1 and replace the last bar by:

E|----------------|
B|----------------|
G|----------------|
D|----------------|
A|------------5---| And then go to the bridge
E|3-------3-------|

Bridge:
E|----------------|----------------|
B|----------------|----------------|
G|----------------|0-------0-------|
D|----------------|2-------2-------|
A|3---------------|------------3---|
E|----------------|----------------|



E|----------------|----------------|
B|----------------|----------------|
G|----------------|0-------0-------|
D|----------------|2-------2-------|
A|2---------------|------------2---|
E|----------------|----------------|


E|----------------|----------------|
B|----------------|----------------|
G|----2---2---2---|2-------2-------|
D|----2---2---2---|2-------2-------|
A|0---------------|------------0---|
E|----------------|----------------|


E|----------------|----------------|
B|----------------|----------------|
G|----------------|----2-----------|
D|0---------------|--------3---2---|
A|----------------|----------------|
E|----------------|----------------|


E|----------------|----------------|
B|----------------|----------------|
G|----------------|2-------2-------|
D|0---------------|----------------|
A|----------------|------------0---|
E|----------------|----------------|


E|----------------|----------------|
B|----------------|----------------|
G|----------------|----2-----------|
D|0---------------|--------3---2---|
A|----------------|----------------|
E|----------------|----------------|


E|----------------|----------------|
B|----------------|----------------|
G|----------------|2-------2-------|
D|0---------------|------------0---|
A|----------------|----------------|
E|----------------|----------------|


E|----------------|----------------|
B|----------------|----------------|
G|----------------|----------------|
D|----------------|----------------|
A|3---------------|--------3-------|
E|----------------|------------3---|


E|----------------|----------------|
B|----------------|----------------|
G|----------------|----------------|
D|----------------|----------------|
A|3---------------|----------------|
E|----------------|----------------|



E|----------------|----------------|
B|----------------|----------------|
G|----------------|0-------0-------|
D|----------------|----------------|
A|3---------------|------------3---|
E|----------------|----------------|


E|----------------|----------------|
B|----------------|----------------|
G|----------------|0-------0-------|
D|----------------|----------------|
A|2---------------|------------2---|
E|----------------|----------------|


E|----------------|----------------|
B|----------------|----------------|
G|----------------|2-------2-------|
D|----------------|----------------|
A|0---------------|------------0---|
E|----------------|----------------|


E|----------------|----------------|
B|----------------|----------------|
G|----------------|----2-----------|
D|0---------------|--------3---2---|
A|----------------|----------------|
E|----------------|----------------|


E|----------------|----------------|
B|----------------|----------------|
G|----------------|2-------2-------|
D|0---------------|----------------|
A|----------------|------------0---|
E|----------------|----------------|


E|----------------|----------------|
B|----------------|----------------|
G|----------------|----2-----------|
D|0---------------|--------3---2---|
A|----------------|----------------|
E|----------------|----------------|


E|----------------|----------------|
B|----------------|----------------|
G|----------------|2-------2-------|
D|0---------------|------------0---|
A|----------------|----------------|
E|----------------|----------------|


E|----------------|----------------|
B|----------------|----------------|
G|----------------|----------------|
D|----------------|----------------|
A|3---------------|--------3-------|
E|----------------|------------3---|


E|----------------|----------------|
B|----------------|----------------|
G|----------------|----------------|
D|----------------|----------------|
A|3-------2-------|1-------2-------|
E|----------------|----------------|

Repeat verse 1 and 2 and replace the last bar of verse 2 by:

E|----------------|----------------|
B|----------------|----------------|
G|----------------|----------------|
D|----------------|----------------|
A|----------------|3-------3-----3-|
E|------------3---|----------------|


E|----------------|----------------|----------------|
B|----------------|----------------|----------------|
G|----------------|----------------|----------------|
D|----------------|----------------|----------------|
A|3-------3-------|3-------3-------|3---------------|
E|--------------3-|------------3---|----------------|

Status Quo Menu

Status Quo News



«  Декабрь 2016  »
ПнВтСрЧтПтСбВс
   1234
567891011
12131415161718
19202122232425
262728293031

    Russian Fan Site Status Quo! 2008 2016 |