Status Quo - Fat Mama


Fat Mama Тип: басс табулатура


BIG FAT MAMA


Intro: (parallel to the lead guitar)
G---|----------------------------|-----------------------|----------------------|
D---|---4:-----------------------|-----------------------|----------------------|
A---|---4:---0---6---7---0---0---|---0---6---7---0---0---|----------------------|
E---|----------------------------|-----------------------|----------------------|

G-----------------------|-------------------------------------------------------|
D-----------------------|-------------------------------------------------------|
A---0---6---7---0---0---|---0---6---7---0---0-----------------------------------|
E-----------------------|-------------------------------------------------------|


6x
G---||----------------------------4---5----||/14---|----------------------------|
D---||*-------------------7---5-----------*||/14---|~~~-------------------------|
A---||*---0---7---6---0-------------------*||------|----------------------------|
E---||-------------------------------------||------|----------------------------|


Rhythm guitar intro 3x
G---||----------------------------------------||-------------------||-----------|
D---||*---------------------------------------||*-----------------*||-----------|
A---||*---------------------------------------||*-----------------*||-----------|
E---||----------------------------------------||----3---3---3---5\-||-----------|


4th time through: NO BASS
G-----------------------------------------------|-------------------------------|
D-----------------------------------------------|-------------------------------|
A-----------------------------------------------|-------------------------------|
E-----------------------------------------------|-------------------------------|


drums hit high hat
G-----------------------------------------------|-------------------------------|
D-----------------------------------------------|-------------------------------|
A-----------------------------------------------|-------------------------------|
E-----------------------------------------------|-------------------------------|


A
G-------------------------------------------------------|-----------------------|
D-------------------------------------------------------|-----------------------|
A-----------3---3-----------3---3-----------3---5---3---|-----------------------|
E---5---5-----------5---5-----------5---5---------------|-----------------------|

G-------------------------------------------------------|-----------------------|
D-------------------------------------------------------|-----------------------|
A-----------3---3-----------3---3-----------3---5---3---|-----------------------|
E---5---5-----------5---5-----------5---5---------------|-----------------------|


A
G-----------------------------------|---------------------------------|---------|
D-----------------------------------|---------------------------------|---------|
A-----------------------------------|-------------------------------2h|---------|
E---5---5---5---5---5---5---5---5---|---5---5---5---5---5---5---5-----|---------|
Say you need me Say__ you ne__ ed me
You keep telin' me You're not having me

G---------------------------------|---------------------------------|-----------|
D---------------------------------|---------------------------------|-----------|
A---3---3---3---3---3---3---3---2h|---3---3---3---3---3---3---3---4h|-----------|
E---------------------------------|---------------------------------|-----------|
tell me that you want my lo__ ve
I'm telling you that I can see___

G---------------------------------|-----------------------------------|---------|
D---------------------------------|-----------------------------------|---------|
A---5---5---5---5---5---5---5---4h|---5---5---5---5---5---5---5---5---|---------|
E---------------------------------|-----------------------------------|---------|
Say you will be_ mine__ and I__ am__
All the things that you might wanna

G-------------------------------------------------------|-----------------------|
D-------------------------------------------------------|-----------------------|
A-----------3---3-----------3---3-----------3---5---3---|-----------------------|
E---5---5-----------5---5-----------5---5---------------|-----------------------|
yours
be___

G-------------------------------------------------------|---|-------------------|
D-------------------------------------------------------|---|-------------------|
A-----------3---3-----------3---3-----------3---5---3---|---|-------------------|
E---5---5-----------5---5-----------5---5---------------|---|-------------------|


A
G-----------------------------------|---------------------------------|---------|
D-----------------------------------|---------------------------------|---------|
A-----------------------------------|-------------------------------2h|---------|
E---5---5---5---5---5---5---5---5---|---5---5---5---5---5---5---5-----|---------|
You think that you're way abo__ve me
Say you need me Say you need me

G---------------------------------|---------------------------------|-----------|
D---------------------------------|---------------------------------|-----------|
A---3---3---3---3---3---3---3---2h|---3---3---3---3---3---3---3---4h|-----------|
E---------------------------------|---------------------------------|-----------|
I'm telling you that I can see____
tell me that you want my love

G---------------------------------|-----------------------------------|---------|
D---------------------------------|-----------------------------------|---------|
A---5---5---5---5---5---5---5---4h|---5---5---5---5---5---5---5---5---|---------|
E---------------------------------|-----------------------------------|---------|
All those things that you might wanna
Say you will be mine and I am

G-------------------------------------------------------|-----------------------|
D-------------------------------------------------------|-----------------------|
A-----------3---3-----------3---3-----------3---5---3---|-----------------------|
E---5---5-----------5---5-----------5---5---------------|-----------------------|
be__
yours

G---------------------------------------------------------|---------------|-----|
D---------------------------------------------------------|---------------|-----|
A-----------3---3-----------3---3-----------3---5---3h5---|---7---7---7---|-----|
E---5---5-----------5---5-----------5---5-----------------|---------------|-----|
I am yours

Lead guitar
G---|-----------------------|-----------------------------------|---------------|
D---|-----------------------|-----------------------------------|---------------|
A---|-----------------------|-----------------------------------|---------------|
E---|-----------------------|---5---5---5---5---5---5---5---5---|---------------|
to__ night__


G-----------------------------------|-----------------------|-------------------|
D-----------------------------------|-----------------------|-------------------|
A-----------------------------------|-----------------------|-------------------|
E---5---5---5---5---5---5---5---5---|---0-------0-------0---|-------------------|
You'll be mine

Lead guitar
G-----------------------------------|-----------------------------------|-------|
D-----------------------------------|-----------------------------------|-------|
A-----------------------------------|-----------------------------------|-------|
E-----------------------------------|---5---5---5---5---5---5---5---5---|-------|
to__ night__


G-----------------------------|---------------|---------------|-------|---------|
D-----------------------------|---------------|---------------|-------|---------|
A-----------------------------|---5---5---5---|---7---7---7---|---0---|---------|
E---5---5---4h5---3h5---2h5---|---------------|---------------|-------|---------|


2x Bass, Lead & Rhythm guitar solo
G-------||---||-----------------7---9---7------------|--------------------------|
D------*||---||*---7---9---10---------------10---9---|--------------------------|
A---12\*||---||*-------------------------------------|--------------------------|
E-------||---||--------------------------------------|--------------------------|


2x
G----------------7---9h10p7---9----||---9---10---9---7--------------------|-----|
D---7---9---10--------------------*||--------------------9---10---9---7---|-----|
A---------------------------------*||-------------------------------------|-----|
E----------------------------------||-------------------------------------|-----|

G---9---10---9---7--------------------|-----------------------------------------|
D--------------------9---10---9---7---|-----------------------------------------|
A-------------------------------------|-----------------------------------------|
E-------------------------------------|-----------------------------------------|

G---9---10---9---7--------------------|-----------------------------------------|
D--------------------9---10---9---7---|---9---10---9--------7-------------------|
A-------------------------------------|----------------10-----------------------|
E-------------------------------------|-----------------------------------------|

G---||------------------------------------|-------------------------------------|
D---||*---------------0---2---0-----------|-------------------------------------|
A---||*---0---2---3---------------3---2---|-------------------------------------|
E---||------------------------------------|-------------------------------------|


2x
G--------------------------------||-----------------------------------|---------|
D---------------0---2h3p0---2---*||---2---3---2---0-------------------|---------|
A---0---2---3-------------------*||-------------------2---3---2---0---|---------|
E--------------------------------||-----------------------------------|---------|

G-----------------------------------|-----------------------------------|-------|
D---2---3---2---0-------------------|---2---3---2---0-------------------|-------|
A-------------------2---3---2---0---|-------------------2---3---2---0---|-------|
E-----------------------------------|-----------------------------------|-------|


Drums only (for 2 bars) Instrumental:
G-----------------------|-----------------------------------|-------------------|
D-----------------------|-----------------------------------|-------------------|
A---2---3---2-------0---|-----------------------------------|-------------------|
E---------------3-------|-----------------------------------|-------------------|


Am 8x Dm
G-------------------||-----------------------------||-------------------|-------|
D-------------------||*---------------------------*||-------------------|-------|
A-------------------||*-----------0---0---0---0---*||---0---0---0---0---|-------|
E-------------------||-----------------------------||-------------------|-------|


Am
G-------------------|-------------------|-------------------|-------------------|
D-------------------|-------------------|-------------------|-------------------|
A---0---0---0---0---|---0---0---0---0---|---0---0---0---0---|-------------------|
E-------------------|-------------------|-------------------|-------------------|


Am sus4 Am
G-------------------|-------------------|-------------------|-------------------|
D-------------------|-------------------|-------------------|-------------------|
A---0---0---0---0---|---0---0---0---0---|---0---0---0---0---|-------------------|
E-------------------|-------------------|-------------------|-------------------|


Am Am/G Am Am Am/G
G-------------------|-------------------|---------------------------------------|
D-------------------|-------------------|---------------------------------------|
A---0---0-----------|---0---0---0---0---|---0---0-------------------------------|
E-----------3---3---|-------------------|-----------3---3-----------------------|


7x
G---||---------------------||---------------------------|-----------------------|
D---||*-------------------*||---------------------------|-----------------------|
A---||*-------3---5---3---*||-------3---5---3-----------|-----------------------|
E---||----5----------------||---5-----------------------|-----------------------|
I got a


G-----------------------------------|-----------------------------------|-------|
D-----------------------------------|-----------------------------------|-------|
A-----------------------------------|-----------------------------------|-------|
E---5---5---5---5---5---5---5---5---|---5---5---5---5---5---5---5---5---|-------|
big fat mama with a big fat collar


G-----------------------------------|-------------------------------------------|
D-----------------------------------|-------------------------------------------|
A---5---5---5---5---5---5---5---5---|-------------------------------------------|
E-----------------------------------|-------------------------------------------|
really thinks she's something


G---------------------------------------|---------------------------------------|
D---------------------------------------|---------------------------------------|
A---------------------------------------|---------------------------------------|
E---5---5---5---5---5---5---5---5-------|---------------------------------------|
else But I


G-----------------------------------|-----------------------------------|-------|
D-----------------------------------|-----------------------------------|-------|
A-----------------------------------|-----------------------------------|-------|
E---5---5---5---5---5---5---5---5---|---5---5---5---5---5---5---5---5---|-------|
love that woman like a fish loves the water


G-----------------------------------|-----------------------------------|-------|
D-----------------------------------|---2---2---0---0-------------------|-------|
A---2---2---2---2---2---2---2---2---|-------------------4---4---2---2---|-------|
E-----------------------------------|-----------------------------------|-------|
and there is nobody else I gotta


G-----------------------------------|-----------------------------------|-------|
D-----------------------------------|-----------------------------------|-------|
A-----------------------------------|-----------------------------------|-------|
E---5---5---5---5---5---5---5---5---|---5---5---5---5---5---5---5---5---|-------|
tell you woman better do as you're told If you


G-----------------------------------|-----------------------------------|-------|
D-----------------------------------|-----------------------------------|-------|
A---5---5---5---5---5---4---3---2---|---2-------------------------------|-------|
E-----------------------------------|-----------------------------------|-------|
don't I'm gonna bri__ ng you down I've got a


G-----------------------------------------------|-------------------|-----------|
D-----------------------------------------------|-------------------|-----------|
A-----------------------------------------------|---3---3---5---5---|-----------|
E---5---5---5---5---5---5---5---5---------------|-------------------|-----------|
big fat mama when there's no- one else a-


G-----------------------------------|-------2---0-----------------------|-------|
D-----------------------------------|---------------2---3---0-----------|-------|
A-----------------------------------|---------------------------3---2---|-------|
E---5---5---5---5---5---5---5---5---|---5-------------------------------|-------|
round___ I said


G-----------------------------------|-----------------------------------|-------|
D-----------------------------------|-----------------------------------|-------|
A-----------------------------------|-----------------------------------|-------|
E---5---5---5---5---5---5---5---5---|---5---5---5---5---5---5---5---5---|-------|
Say you need me Come on


G-----------------------------------|-----------------------------------|-------|
D-----------------------------------|-----------------------------------|-------|
A---3---3---3---3---3---3---3---3---|---3---3---3---3---3---3---3---3---|-------|
E-----------------------------------|-----------------------------------|-------|
say you need me I said


G-----------------------------------|-----------------------------------|-------|
D-----------------------------------|-----------------------------------|-------|
A---5---5---5---5---5---5---5---5---|---5---5---5---5---5---5---5---5---|-------|
E-----------------------------------|-----------------------------------|-------|
say you need me


G-----------------------------------|-----------------------------------|-------|
D---------------------------5---4---|---3---2---1---0-------------------|-------|
A---------------5---4---3-----------|-------------------4---3---2---1---|-------|
E---5---4---3-----------------------|-----------------------------------|-------|

G-----------------------------------|-----------------------------------|-------|
D-----------------------------------|-----------------------------------|-------|
A-----------------------------------|-----------------------------------|-------|
E---5---5---5---5---5---5---5---5---|---5---5---5---5---5---5---5---5---|-------|
Say you need me Come on


G-----------------------------------|-----------------------------------|-------|
D-----------------------------------|-----------------------------------|-------|
A---3---3---3---3---3---3---3---3---|---3---3---3---3---3---3---3---3---|-------|
E-----------------------------------|-----------------------------------|-------|
say you need me I said


G-----------------------------------|-----------------------------------|-------|
D-----------------------------------|-----------------------------------|-------|
A---5---5---5---5---5---5---5---5---|---5---5---5---5---5---5---5---5---|-------|
E-----------------------------------|-----------------------------------|-------|
say you need me


G-------------------------------------------------------------------------------|
D-------------------------------------------------------------------------------|
A-------------------------------------------------------------------------------|
E---5---3---5---3---5---3---5---3---5---3---------------------------------------|


Instrumental: A
G---||----------------------------------------------------------------|---------|
D---||*---------------------------------------------------------------|---------|
A---||*---------------------------------------------------------------|---------|
E---||--------------------------------5---5---5---5---5---5---5---5---|---------|


C
G-----------------------------------|-----------------------------------|-------|
D-----------------------------------|-----------------------------------|-------|
A-----------------------------------|-----------------------------------|-------|
E---5---5---5---5---5---5---5---5---|---8---8---8---8---8---8---8---8---|-------|


D
G-----------------------------------|-----------------------------------|-------|
D-----------------------------------|-----------------------------------|-------|
A-----------------------------------|---5---5---5---5---5---5---5---5---|-------|
E---8---8---8---8---8---8---8---8---|-----------------------------------|-------|


A
G-----------------------------------|-----------------------------------|-------|
D-----------------------------------|-----------------------------------|-------|
A---5---5---5---5---5---5---5---5---|-----------------------------------|-------|
E-----------------------------------|---5---5---5---5---5---5---5---5---|-------|


A
G-----------------------------------|-----------------------------------|-------|
D---7---7---7---7---7---5-----------|-----------------------7---5-------|-------|
A---------------------------7---5---|-------------------------------7---|-------|
E-----------------------------------|---5---5---5---5---5---------------|-------|


C
G-----------------------------------|-----------------------------------|-------|
D-----------------------------------|-----------------------------------|-------|
A-----------------------------------|-----------------------------------|-------|
E---5---5---5---5---5---5---5---5---|---8---8---8---8---8---8---8---8---|-------|


D
G-----------------------------------|-----------------------------------|-------|
D-----------------------------------|-----------------------------------|-------|
A-----------------------------------|---5---5---5---5---5---5---5---5---|-------|
E---8---8---8---8---8---8---8---8---|-----------------------------------|-------|


A
G-----------------------------------|-----------------------------------|-------|
D-----------------------------------|-----------------------------------|-------|
A---5---5---5---5---5---5---5---5---|-----------------------------------|-------|
E-----------------------------------|---5---5---5---5---5---5---5---5---|-------|


3x
G----------------------------||-------------------------------------------|-----|
D-------5h7p5---------------*||-------------------------------------------|-----|
A---7-----------7---5h7p5---*||-------------------------------------------|-----|
E----------------------------||---5---3---5---3---5---3---5---3---5---3---|-----|

G-------------------------------------------|-----------------------------------|
D-------------------------------------------|-----------------------------------|
A-------------------------------------------|-----------------------------------|
E---5---3---5---3---5---3---5---3---5---3---|-----------------------------------|

G-------------------------------------------|----------|----------||------------|
D-------------------------------------------|----------|----------||------------|
A-------------------------------------------|----------|----------||------------|
E---5---3---5---3---5---3---5---3---5---3---|---5~~~---|---5/17---||------------|

Status Quo Menu

Status Quo News



«  Декабрь 2016  »
ПнВтСрЧтПтСбВс
   1234
567891011
12131415161718
19202122232425
262728293031

    Russian Fan Site Status Quo! 2008 2016 |