Status Quo - Fine Fine Fine


Fine Fine Fine Тип: табулатура


Status Quo
Fine Fine Fine



Intro:
------

Guitar no.1:
&
E|---------------------------------------------------------------|
H|---------------------------------------------------------------|
G|-----7-----7-----7-----7-----7--10-9---------------------------|
D|-6h7---6h7---6h7---6h7---6h7---------12-10-9-------------------|
A|---------------------------------------------12-10-8h10p8------|
E|----------------------------------------------------------10---|

Guitar no.2:
&
E|---------------------------------------------------------------|
H|---------------------------------------------------------------|
G|-----2-----2-----2-----2-----2---------------------------------|
D|-3h4---3h4---3h4---3h4---3h4-----3-2---------------------------|
A|--------------------------------------5--3-2---------------5---|
E|----------------------------------------------5--3--1-3--5-----|

Fine Fine Fine
(Rossi/Young)

C#-D
I never knew of heartache
A
'Till I messed with you

I sure do sitting here
D
Feeling all the pain

I just can't sleep now
E7
'Cos I'm hoping that you'll keep
A7 D
Another heartache for my heart again


(Dbl guitar intro starting from &)

C#-D
My mama taught me
A
How to read from the good book

My papa taught me
D
How to win and lose the game

They went down smiling
E7
'Cos they left me all they had
A7 D
Plus another heartache for my heart again


C C# D
But now it's fine, fine, fine
E7
'Cos you're with me all the time
G D
There to care and share the things I do
C C# D
And now it's fine, fine, fine
E7
'Cos you're with me all the time
G D
Everywhere and even nowhere, too



(Dbl guitar intro starting from &)

Guitar solo:
D A
E|--------------------------------7---5-----------------------------|
H|-----------3-3---------3------5---8---7-8-5-----------5-7-5-8p10r8|
G|-----2-4p2---------2-4----5h6---------------6-6---5h6-------------|
D|-3h4-----------3h4------------------------------------------------|
A|------------------------------------------------------------------|
E|------------------------------------------------------------------|

D
E|------------------------5-----------------------10-8--------|
H|-----5-7-5-8p10r8-----5---8-7-5--------7-8-7---------10-8-7-|
G|-5h6--------------5h6-----------7-6-7--------7--------------|
D|------------------------------------------------------------|
A|------------------------------------------------------------|
E|------------------------------------------------------------|

A
E|-------------------------9----12-9-------------------9----7-|
H|-8p10-8p10-8p10-8-7---10---10------10-9-8---10-10-10---10---|
G|--------------------9---------------------------------------|
D|------------------------------------------------------------|
A|------------------------------------------------------------|
E|------------------------------------------------------------|

D
E|-------------------------------------------------10-10-10-10|
H|-9-10-7-9---7-----------------------7-----------------------|
G|----------9---7-9-6-7---6-----6-7-9---9-7-6-7---------------|
D|----------------------9---7-9-------------------------------|
A|------------------------------------------------------------|
E|------------------------------------------------------------|

A
E|-10-10-10-10-10-10-12p14r12-10-12-10-9------------------|
H|---------------------------------------12-10---10-10-10-|
G|--------------------------------------------------------|
D|--------------------------------------------------------|
A|--------------------------------------------------------|
E|--------------------------------------------------------|

D
E|----12----10----9--------------------12p14-12-10------------|
H|-14----12----10---8---12-12-12-11-10-------------10---------|
G|----------------------------------------------------10h11---|
D|----------------------------------------------------------12|
A|------------------------------------------------------------|
E|------------------------------------------------------------|


E|----------------12p14-12-10------------|
H|-12-12-12-11-10-------------10---------|
G|-------------------------------10h11---|
D|-------------------------------------12|
A|---------------------------------------|
E|---------------------------------------|



D
I used to make the late nights
A
On a cheap week end

But all the women there were
D
Just a crying shame

I heard them saying that
E7
They didn't think I'd stop
A7 D
For another heartache for my heart again


C C# D
But now it's fine, fine, fine
E7
'Cos you're with me all the time
G D
There to care and share the things I do
C C# D
And now it's fine, fine, fine
E7
'Cos you're with me all the time
G D
Everywhere and even nowhere, too

(Complete dbl. guitar intro as outro)


Status Quo Menu

Status Quo News



«  Декабрь 2016  »
ПнВтСрЧтПтСбВс
   1234
567891011
12131415161718
19202122232425
262728293031

    Russian Fan Site Status Quo! 2008 2016 |