Status Quo - Gerdundula


Gerdundula Тип: табулатура


Gerdundula
(Manston-James)

Gm F - Gm
Love it seems I just can't find
F - Gm
Love it seems I just can't find
D# D
Seems that I'm the one love
Gm
The one love left behind

Gm F - Gm
I've searched it just won't come my way
F - Gm
I've searched it just won't come my way
D# D
It's love that I want now
Gm
So what more can I say

Guitar solo:
Gm
E|-10h11p10----10-10h11p10----10-10h1p10----10-11-13-11-------------------|
H|----------13-------------13------------13-------------13-11-10-11-11-10-|
G|------------------------------------------------------------------------|
D|------------------------------------------------------------------------|
A|------------------------------------------------------------------------|
E|------------------------------------------------------------------------|

F Gm F Gm
E|---------------------------------------------------------------------------|
H|----10-10-------------------------10-11-11-10----10-10---------------------|
G|-12-------12-10-10h11h12-12-12-12-------------12-------12-10-10h11h12-12-12|
D|---------------------------------------------------------------------------|
A|---------------------------------------------------------------------------|
E|---------------------------------------------------------------------------|


Gm
E|-10h11p10----10-10h11p10----10-10h1p10----10-11-13-11-------------------|
H|----------13-------------13------------13-------------13-11-10-11-11-10-|
G|------------------------------------------------------------------------|
D|------------------------------------------------------------------------|
A|------------------------------------------------------------------------|
E|------------------------------------------------------------------------|

F Gm F Gm
E|---------------------------------------------------------------------------|
H|----10-10-------------------------10-11-11-10----10-10---------------------|
G|-12-------12-10-10h11h12-12-12-12-------------12-------12-10-10h11h12-12-12|
D|---------------------------------------------------------------------------|
A|---------------------------------------------------------------------------|
E|---------------------------------------------------------------------------|

Gm
E|-------------------------------10----10----10----10----11-13-11-|
H|----------------------------------------------------------------|
G|-12-12-12-12-12-12-12-12-12-12----12----12----12----12----------|
D|----------------------------------------------------------------|
A|----------------------------------------------------------------|
E|----------------------------------------------------------------|

F
E|-10-------------10----10----10----10----10-11-10---------------|
H|----13-11-10-------------------------------------13-11-10------|
G|-------------12----12----12----12----12------------------------|
D|---------------------------------------------------------------|
A|---------------------------------------------------------------|
E|---------------------------------------------------------------|

Gm
E|----10----10----10----10----11-13-11-|
H|-------------------------------------|
G|-12----12----12----12----12----------|
D|-------------------------------------|
A|-------------------------------------|
E|-------------------------------------|

F
E|-10-------------10----10----10----10----10-11-10---------------|
H|----13-11-10-------------------------------------13-11-10------|
G|-------------12----12----12----12----12------------------------|
D|---------------------------------------------------------------|
A|---------------------------------------------------------------|
E|---------------------------------------------------------------|


Gm
E|----10----10----10----10----11-13-11-|
H|-------------------------------------|
G|-12----12----12----12----12----------|
D|-------------------------------------|
A|-------------------------------------|
E|-------------------------------------|

F
E|-10-------------10----10----10----10----10-11-10----------|
H|----13-11-10-------------------------------------13-11-10-|
G|-------------12----12----12----12----12-------------------|
D|----------------------------------------------------------|
A|----------------------------------------------------------|
E|----------------------------------------------------------|




Gm F Gm F
E|---------------------------------------------------------------|
H|-11-11-10----10-10-------------------------10-11-11-10----10-10|
G|----------12-------12-10-10h11h12-12-12-12-------------12------|
D|---------------------------------------------------------------|
A|---------------------------------------------------------------|
E|---------------------------------------------------------------|


Gm
E|----------------|
H|-12-10-10h11h12-|
G|----------------|
D|----------------|
A|----------------|
E|----------------|


Gm
E|-10h11p10----10-10h11p10----10-10h1p10----10-11-13-11-------------------|
H|----------13-------------13------------13-------------13-11-10-11-11-10-|
G|------------------------------------------------------------------------|
D|------------------------------------------------------------------------|
A|------------------------------------------------------------------------|
E|------------------------------------------------------------------------|

F Gm F Gm
E|---------------------------------------------------------------------------|
H|----10-10-------------------------10-11-11-10----10-10---------------------|
G|-12-------12-10-10h11h12-12-12-12-------------12-------12-10-10h11h12-12-12|
D|---------------------------------------------------------------------------|
A|---------------------------------------------------------------------------|
E|---------------------------------------------------------------------------|






Gm F - Gm
Women seem to pass me by
F - Gm
Women seem to pass me by
D# D
If I could find the reason
Gm
I'd know the answer why

Gm F - Gm
Love it seems I just can't find
Gm F - Gm
Love it seems I just can't find
D# D
Seems that I'm the one love
Gm
The one love left behind


Status Quo Menu

Status Quo News



«  Декабрь 2016  »
ПнВтСрЧтПтСбВс
   1234
567891011
12131415161718
19202122232425
262728293031

    Russian Fan Site Status Quo! 2008 2016 |