Status Quo - Get Back


Get Back Тип: табулатура


Get Back
Status Quo
Don't Stop 1996


From the genius that is the Beatles.

Rick intro: |A| |A| |D| |A| |A G D| |A|

Francis:
E|-9-9-9--9-9-9--8-8-8-|
B|-8-8-8--8-8-8--7-7-7-|
G|-9-9-9--9-9-9--9-9-9-|
D|---------------------|
A|---------------------|
E|---------------------|and so on...


A
Jojo was a man who thought he was a loner
D A
but he knew it couldn't last

E|-------------------------|
B|-------------------------|
G|-4b-4p2-4p2-4p2----------|
D|----------------4p2----2-|
A|--------------------3b-0-|
E|-------------------------|

A
Jojo left his home in Tuscan, Arizona
D A G
for some Californian grass

D A
Get back! Get back!
D7 A G
Get back to where you once belonged
D A
Get back! Get back!
D A
Get back to where you once belonged


E|------------------------12-------------|
B|----10-10-10----10-12hb----rb-10----10-|
G|-11----------11------------------11----|
D|---------------------------------------|
A|---------------------------------------|
E|---------------------------------------|
etc.


Status Quo Menu

Status Quo News



«  Декабрь 2016  »
ПнВтСрЧтПтСбВс
   1234
567891011
12131415161718
19202122232425
262728293031

    Russian Fan Site Status Quo! 2008 2016 |