Status Quo - Get Up And Go


Get Up And Go Тип: табулатура


Gotta Get Up And Go
Status quo

Guitar intro:

E|--------------------------------------------------------------------|
B|--------------------------------------------------------------------|
G|---------------------------------------------5-5-5-5-----------5-5--| etc
D|-0-4-5-7-0-4-5-7-0-4-5-7-0-4-5-7-0-4-4-5-5-7---------4-4-5-5-7------|
A|--------------------------------------------------------------------|
E|--------------------------------------------------------------------|

Later in the song play
E|--------------------------------------------------------------------|
B|--------------------------------------------------------------------|
G|-------------------------------------------2-5-5-5-5---------2-5-5--| etc
D|-0-4-5-7-0-4-5-7-0-4-5-7-0-4-5-7-0-4-4-5-5-4-7-7-7-7-4-4-5-5-4-7-7--|
A|-----------------------------------5-5-7-7-----------5-5-7-7--------|
E|--------------------------------------------------------------------|




Status Quo Menu

Status Quo News



«  Декабрь 2016  »
ПнВтСрЧтПтСбВс
   1234
567891011
12131415161718
19202122232425
262728293031

    Russian Fan Site Status Quo! 2008 2016 |