Status Quo - Good Thinking Batman


Good Thinking Batman Тип: табулатура


Good Thinking Batman
Status Quo


(C) (F)
E|------------------------------------------------------------------|
B|------------------------------------------------------------------|
G|------------------------------------------------------------------|
D|----------------------------------10--10--12--10--10--10--12--10--|
A|--10--10--12--10--10--10--12--10--8---8---8---8---8---8---8---8---|
E|--8---8---8---8---8---8---8---8-----------------------------------|





(C)
E|------------------------------------------------------------------|
B|------------------------------------------------------------------|
G|------------------------------------------------------------------|
D|------------------------------------------------------------------|
A|--10--10--12--10--10--10--12--10--10--10--12--10--10--10--12--10--|
E|--8---8---8---8---8---8---8---8---8---8---8---8---8---8---8---8---|





(F)
E|------------------------------------------------------------------|
B|------------------------------------------------------------------|
G|------------------------------------------------------------------|
D|--10--10--12--10--10--10--12--10--10--10--12--10--10--10--12--10--|
A|--8---8---8---8---8---8---8---8---8---8---8---8---8---8---8---8---|
E|------------------------------------------------------------------|





(C)
E|------------------------------------------------------------------|
B|------------------------------------------------------------------|
G|------------------------------------------------------------------|
D|------------------------------------------------------------------|
A|--10--10--12--10--10--10--12--10--10--10--12--10--10--10--12--10--|
E|--8---8---8---8---8---8---8---8---8---8---8---8---8---8---8---8---|




(G) (F)
E|------------------------------------------------------------------|
B|------------------------------------------------------------------|
G|------------------------------------------------------------------|
D|--12--12--14--12--12--12--14--12--10--10--12--10--10--10--12--10--|
A|--10--10--10--10--10--10--10--10--8---8---8---8---8---8---8---8---|
E|------------------------------------------------------------------|




(C) (G)
E|------------------------------------------------------------------|
B|------------------------------------------------------------------|
G|------------------------------------------------------------------|
D|----------------------------------12--12--14--12--12--12--14--12--|
A|--10--10--12--10--10--10--12--10--10--10--10--10--10--10--10--10--|
E|--8---8---8---8---8---8---8---8-----------------------------------|
(Repeat)





Section 1

E|--------------------------------------------------8--8------------|
B|--8--8-----------------------8--8-----------------------8---------|
G|--------10--8-------------8--------10--8-------------------8------|
D|---------------10--8--10------------------10--10------------------|
A|------------------------------------------------------------------|
E|------------------------------------------------------------------|
Ch Ch Ch Vib





E|--8---------------------------------------------------------------|
B|-----8--8--8--8-----8--8--8--8---------8--8--8--8--8--8-----------|
G|-----8--8--8--8--8--8--8--8--8--10--8--------------------10--8----|
D|------------------------------------------------------------------|
A|------------------------------------------------------------------|
E|------------------------------------------------------------------|





E|-------------8------8--8--8--11--8--------------------------------|
B|----------------11------------------11--8-------------------------|
G|-------------------------------------------10--8--10--10--8-------|
D|--10--8--10--------------------------------------------------10---|
A|------------------------------------------------------------------|
E|------------------------------------------------------------------|
BU




E|---------8--11--8-----------------------------------|
B|-------------------11--8----------------------------|
G|--------------------------10--8------8--------------|
D|--8--10--------------------------10-----------------|
A|----------------------------------------10--10--10--|
E|----------------------------------------------------|
Po Sl


Section 2

E|------------------------------------------------------------------|
B|----------------------------11--11--11--11--11--11--10--8---------|
G|--10--10--10--10--9----------------------------------------10--8--|
D|---------------------8--10----------------------------------------|
A|------------------------------------------------------------------|
E|------------------------------------------------------------------|
Sl BU




E|-----------------------11--11--11--11--11--8----------------------|
B|----------------------------------------------11--8--11--11--8----|
G|--10--8--9--------------------------------------------------------|
D|------------10--10--8---------------------------------------------|
A|------------------------------------------------------------------|
E|------------------------------------------------------------------|
Po BU




E|------------------------------------------------------------------|
B|------------------------8-----------------------------------------|
G|--10--10--8------8--10-----10--8----------------------------------|
D|-------------10-------------------10--8--------------------8--10--|
A|-----------------------------------------10--8--10--8--10---------|
E|------------------------------------------------------------------|
BU H Po H H H




E|---------------------------------8--------------------------------|
B|------------------------------------11----------------------------|
G|--8--10--(12)--10--8------8-------------10--(12)--10--8------8----|
D|----------------------10-----10--------------------------10-------|
A|------------------------------------------------------------------|
E|------------------------------------------------------------------|
BU BD Po BU BD Po Ch




E|------8------------------------------|
B|---------8---------------------------|
G|------------8------------------------|
D|--10-----------10--8-----------------|
A|----------------------10--8--10--10--|
E|-------------------------------------|
H



Section 3

E|------------------------------------------------------------------|
B|--8--10--11--11--11--13--10--11--13--13--13--13--13--11--10--11---|
G|------------------------------------------------------------------|
D|------------------------------------------------------------------|
A|------------------------------------------------------------------|
E|------------------------------------------------------------------|
Sl Vib~~~~~~




E|------------------------------------------------------------------|
B|--13--13--11--10------10--11--13--11--10--10--11--11--13--13--11--|
G|------------------12----------------------------------------------|
D|------------------------------------------------------------------|
A|------------------------------------------------------------------|
E|------------------------------------------------------------------|
Po H Vib




E|------------------------------------------------------------------|
B|--11------13--11------13--11------13--11------13--11------13--13--|
G|------12----------12----------12----------12----------12----------|
D|------------------------------------------------------------------|
A|------------------------------------------------------------------|
E|------------------------------------------------------------------|
Po Po Po Po BU BU




E|--------------8---------------------------------------------------|
B|--13--11------8--11--8-------------------------------------8------|
G|----------12------------10--(12)--10--8------8------8--10-----10--|
D|-----------------------------------------10-----10----------------|
A|------------------------------------------------------------------|
E|------------------------------------------------------------------|
Po BU BD Po BU




E|---------------------------|
B|---------------------------|
G|--8------------------------|
D|-----10--8--10--8----------|
A|-------------------10--10--|
E|---------------------------|




Section 4

E|------------------------------------------------------------------|
B|------------------------------------------------------------------|
G|-----------------------------------------------------------7--6---|
D|--8--7--5--8--7--5--8--7--5--8--7--5--8--7--5--8--7--5--8---------|
A|------------------------------------------------------------------|
E|------------------------------------------------------------------|





E|------------------------------------------------------------------|
B|------------------------------------------------------------------|
G|------------------------------------------------------------------|
D|--8--7--5--8--7--5--8--7--5--8--7--5--8--7--5--8--7--5--8--7--5---|
A|------------------------------------------------------------------|
E|------------------------------------------------------------------|
Po Po Po Po Po Po




E|-------------------------------------------8----------------------|
B|-----------8--6----------------------------8--11--8-------8-------|
G|-----------------7--7--7----7--7--7--7---------------8--(10)--10--|
D|--8--7--5-------------------------------8-------------------------|
A|------------------------------------------------------------------|
E|------------------------------------------------------------------|
Po Po Vib BU BU BU Po Vib (BU)




E|------------------------------------------------------------------|
B|-----10--10--10---------------------------------------------------|
G|--8--10--10--10---10--8------8------------------------------------|
D|-------------------------10-----10--10--8--10--8------------------|
A|--------------------------------------------------10--10----------|
E|------------------------------------------------------------------|
Po Ch Po

Status Quo Menu

Status Quo News



«  Декабрь 2016  »
ПнВтСрЧтПтСбВс
   1234
567891011
12131415161718
19202122232425
262728293031

    Russian Fan Site Status Quo! 2008 2016 |