Heartbreaker (intro) Тип: табулатура


My Little Heartbreaker
Status Quo
In Search Of The Fourth Chord 2007




E|--------------------------------------------|
B|--------------------------------------------|
G|--------------------------------------------|
D|--------------------------------------------|
A|-3-3-0---0-3-3-0-------3-3-0---0-3-3-0------|
E|-------3---------3-0---------3---------3-0--|

E|--------------------------------------------|
B|--------------------------------------------|
G|--------------------------------------------|
D|--------------------------------------------|
A|-3-3-0---0-3-3-0-------3-3-0---0-3-3-0------|
E|-------3---------3-0---------3---------3-0--|

E|--------------------------------------------|
B|--------------------------------------------|
G|--------------------------------------------|
D|--------------------------------------------|
A|-3-3-0---0-3-3-0-------3-3-0---0-3-3-0------|
E|-------3---------3-0---------3---------3-0--|

F
Whats been happening

In your world again
C
While I've been gone?..............


Status Quo Menu

Status Quo News



«  Май 2017  »
ПнВтСрЧтПтСбВс
1234567
891011121314
15161718192021
22232425262728
293031

    Russian Fan Site Status Quo! 2008 2017 |