Status Quo - I Dont Remember Anymore


I Dont Remember Anymore Тип: табулатура


Status Quo - I Don't Remember Anymore

Transcribed by Max Olsson

/ = slide in
\ = slide out
br = bend/release
h = hammer on


INTRO

Guitar I
E||------------------|------------------|-----------------|-------|
B||------------------|------------------|-----------------|-------|
G||------------------|------------------|-----------------|-------|
D||------------------|------------------|-----------------|-------|
A||--5h7-7-7-7-7-7-7-|--5h7-7-7-7-7-7-7-|-5h7-7-7-7-7-7-7-|-7-7\--|
E||--5---5-5-5-5-5-5-|--5---5-5-5-5-5-5-|-5---5-5-5-5-5-5-|-5-5\--|

Guitar II fade in
E||------------------|------------------|-----------------|-------|
B||------------------|------------------|-----------------|-------|
G||------------------|------------------|-----------------|-------|
D||------------------|--5h7-7-7-7-7-7-7-|-5h7-7-7-7-7-7-7-|-7-7\--|
A||------------------|--5---5-5-5-5-5-5-|-5---5-5-5-5-5-5-|-5-5\--|
E||------------------|------------------|-----------------|-------|



VERSE I
I dont remember...
E||---------------------------------------|
B||---------------------------------------|
G||---------------------------------------|
D||-7-7-9-7-7-7-9-7-7-7-9-7-7-7-9---------|
A||-5-5-5-5-5-5-5-5-5-5-5-5-5-5-5---------|
E||---------------------------------------|
i woke up...
E||---------------------------------------|
B||---------------------------------------|
G||-7-7-7-9-7-7-7-9-7-7-7-9-7-7-7-9-------|
D||-5-5-5-5-5-5-5-5-5-5-5-5-5-5-5-5-------|
A||---------------------------------------|
E||---------------------------------------|
my head...
E||---------------------------------------|
B||---------------------------------------|
G||---------------------------------------|
D||---------------------------------------|
A||-7-7-9-7-7-7-9-7-7-7-9-7-7-7-9---------|
E||-5-5-5-5-5-5-5-5-5-5-5-5-5-5-5---------|
I dont remember...
E||----------------------------------|
B||----------------------------------|
G||----------------------------------|
D||---7-7-9-7-7-7-9-7----------------|
A||---5-5-5-5-5-5-5-5-5-5-5-5-5-5-5--|
E||-------------------7-7-7-7-7-7-7--|

she stole the...
E||---------------------------------------|
B||---------------------------------------|
G||---------------------------------------|
D||-7-7-9-7-7-7-9-7-7-7-9-7-7-7-9---------|
A||-5-5-5-5-5-5-5-5-5-5-5-5-5-5-5---------|
E||---------------------------------------|
your eyes blue...
E||---------------------------------------|
B||---------------------------------------|
G||-7-7-7-9-7-7-7-9-7-7-7-9-7-7-7-9-------|
D||-5-5-5-5-5-5-5-5-5-5-5-5-5-5-5-5-------|
A||---------------------------------------|
E||---------------------------------------|
carrie you to bed...
E||---------------------------------------|
B||---------------------------------------|
G||---------------------------------------|
D||---------------------------------------|
A||-7-7-9-7-7-7-9-7-7-7-9-7-7-7-9---------|
E||-5-5-5-5-5-5-5-5-5-5-5-5-5-5-5---------|
I dont remember...
E||-----------------------------------|
B||-----------------------------------|
G||-----------------------------------|
D||---7-7-9-7-7-7-9-7--5-5-5-5--------|
A||---5-5-5-5-5-5-5-5--7-7-7-7--------|
E||-----------------------------------|

VERSE II

I wanna rock & roll... sail the tv...
E||------------------------------------------------------------------------|
B||--------8--5------------------------------------------------------------|
G||--------7--5------------------------------------------------------------|
D||-7-9-7--5--3--7-7-9-7-7-7-9-7-----------------7-7-9-7-7-7-9-7-----------|
A||-5-5-5--------5-5-5-5-5-5-5-5-7-7-9-7-7-7-9-7-5-5-5-5-5-5-5-5-----------|
E||------------------------------5-5-5-5-5-5-5-5---------------------------|
want my name... be an all night...
E||-------------------------------------------------|-------------------------|
B||-------------------------------------------------|-------------------------|
G||-7-7-7-9-7-7-7-9---------------------------------|-------------------------|
D||-5-5-5-5-5-5-5-5-7-7-7-9-7-7-7-9-----------------|-------------------------|
A||-----------------5-5-5-5-5-5-5-5-7-7-7-9-7-7-7-9-|-7-5-7-5-7-5-7-5-7-------|
E||---------------------------------5-5-5-5-5-5-5-5-|-5-5-5-5-5-5-5-5-5-------|
Guitar II
|----------------------------|
|----------------------------|
|----------------------------|
|----------------------------|
|----------------------------|
|-5-4-5-4-5-4-5-4-5----------|

VERSE I

don't read the writing
E||---------------------------------------|
B||---------------------------------------|
G||---------------------------------------|
D||-7-7-9-7-7-7-9-7-7-7-9-7-7-7-9---------|
A||-5-5-5-5-5-5-5-5-5-5-5-5-5-5-5---------|
E||---------------------------------------|
cos if i'm having...
E||---------------------------------------|
B||---------------------------------------|
G||-7-7-7-9-7-7-7-9-7-7-7-9-7-7-7-9-------|
D||-5-5-5-5-5-5-5-5-5-5-5-5-5-5-5-5-------|
A||---------------------------------------|
E||---------------------------------------|
i stand around...
E||---------------------------------------|
B||---------------------------------------|
G||---------------------------------------|
D||---------------------------------------|
A||-7-7-9-7-7-7-9-7-7-7-9-7-7-7-9---------|
E||-5-5-5-5-5-5-5-5-5-5-5-5-5-5-5---------|
I dont remember...
E||----------------------------------|
B||----------------------------------|
G||----------------------------------|
D||---7-7-9-7-7-7-9-7----------------|
A||---5-5-5-5-5-5-5-5-5-5-5-5-5-5-5--|
E||-------------------7-7-7-7-7-7-7--|

SOLO I

E||-----------------------------------------------------------------------|
B||-10-10-10-10-10-10-7---------10-10-10-10-10-10-7-----------------------|
G||-11-11-11-11p9--9--7--7-7-7--11-11-11-11p9--9--7--7---7---7------------|
D||----------------------7-7-7-----------------------7h9-7h9-7h9----------|
A||-----------------------------------------------------------------------|
E||-----------------------------------------------------------------------|

E||----------------------------------------------------------|
B||-10-10-10-10-10-10-10----------------10-10-10-10-10-10-10-|
G||-11-11-11-11p9--9--7--9----9----9----11-11-11-11p9--9--7--|
D||----------------------9h11-9h11-9h11----------------------|
A||----------------------------------------------------------|
E||----------------------------------------------------------|

|--------------------------------------------|
|--------------------------------------------|
|-9h10-10-10-9h10-10-10-13p12-10--10-13-15---|
|-------------------------------13-----------|
|--------------------------------------------|
|--------------------------------------------|
|--------------------------------------------|

VERSE II

I wanna rock & roll... sail the tv...
E||------------------------------------------------------------------------|
B||--------8--5------------------------------------------------------------|
G||--------7--5------------------------------------------------------------|
D||-7-9-7--5--3--7-7-9-7-7-7-9-7-----------------7-7-9-7-7-7-9-7-----------|
A||-5-5-5--------5-5-5-5-5-5-5-5-7-7-9-7-7-7-9-7-5-5-5-5-5-5-5-5-----------|
E||------------------------------5-5-5-5-5-5-5-5---------------------------|
want my name... be an all night...
E||-------------------------------------------------|-------------------------|
B||-------------------------------------------------|-------------------------|
G||-7-7-7-9-7-7-7-9---------------------------------|-------------------------|
D||-5-5-5-5-5-5-5-5-7-7-7-9-7-7-7-9-----------------|-------------------------|
A||-----------------5-5-5-5-5-5-5-5-7-7-7-9-7-7-7-9-|-7-5-7-5-7-5-7-5-7-------|
E||---------------------------------5-5-5-5-5-5-5-5-|-5-5-5-5-5-5-5-5-5-------|
Guitar II
|----------------------------|
|----------------------------|
|----------------------------|
|----------------------------|
|----------------------------|
|-5-4-5-4-5-4-5-4-5----------|

VERSE I

she stole the...
E||---------------------------------------|
B||---------------------------------------|
G||---------------------------------------|
D||-7-7-9-7-7-7-9-7-7-7-9-7-7-7-9---------|
A||-5-5-5-5-5-5-5-5-5-5-5-5-5-5-5---------|
E||---------------------------------------|
your eyes blue...
E||---------------------------------------|
B||---------------------------------------|
G||-7-7-7-9-7-7-7-9-7-7-7-9-7-7-7-9-------|
D||-5-5-5-5-5-5-5-5-5-5-5-5-5-5-5-5-------|
A||---------------------------------------|
E||---------------------------------------|
carrie you to bed...
E||---------------------------------------|
B||---------------------------------------|
G||---------------------------------------|
D||---------------------------------------|
A||-7-7-9-7-7-7-9-7-7-7-9-7-7-7-9---------|
E||-5-5-5-5-5-5-5-5-5-5-5-5-5-5-5---------|
I dont remember...
E||-----------------------------------|
B||-----------------------------------|
G||-----------------------------------|
D||---7-7-9-7-7-7-9-7--5-5-5-5--------|
A||---5-5-5-5-5-5-5-5--7-7-7-7--------|
E||-----------------------------------|

SOLO II

E||-----------------------------------------------------------------------|
B||-10-10-10-10-10-10-7---------10-10-10-10-10-10-7-----------------------|
G||-11-11-11-11p9--9--7--7-7-7--11-11-11-11p9--9--7--7---7---7------------|
D||----------------------7-7-7-----------------------7h9-7h9-7h9----------|
A||-----------------------------------------------------------------------|
E||-----------------------------------------------------------------------|

E||-------------------------------------|
B||-10-10-10-10-10-10-10----------------|
G||-11-11-11-11p9--9--7--9----9----9----|
D||----------------------9h11-9h11-9h11-|
A||-------------------------------------|
E||-------------------------------------|

E||--------------12b-10-10-10-12b-12b-12b-12br-10----10-10-10-17br-17br-17br--|
B||---------7-10----------------------------------12--------------------------|
G||-----7-9-------------------------------------------------------------------|
D||-7h9-----------------------------------------------------------------------|
A||---------------------------------------------------------------------------|
E||---------------------------------------------------------------------------|

E||-------------------------------------------14------14------14------14------------------------|
B||-15-15-15----15--17b-17b-17br-15-15----15-----17------17------17------17-------15-17-15-17b--|
G||----------16------------------------16-----------16------16------16------16-16---------------|
D||---------------------------------------------------------------------------------------------|
A||---------------------------------------------------------------------------------------------|
E||---------------------------------------------------------------------------------------------|

After the second solo: VERSE II

OUTRO

E||-----------------------------------------------------------------------|
B||-10-10-10-10-10-10-7--------------10-10-10-10-10-10-7------------------|
G||-11-11-11-11p9--9--7--7---7---7---11-11-11-11p9--9--7--7---7---7-------|
D||----------------------7h9-7h9-7h9----------------------7---7---7-------|
A||-----------------------------------------------------------------------|
E||-----------------------------------------------------------------------|

E||-------------------------------------------------------------------------------------------|
B||-10-10-10-10-10-10-10----------------10-10-10-10-10--10-10-10-10-10--10-10-10-10-10-10-10--|
G||-11-11-11-11p9--9--7--9----9----9----11-11-11-11-11--11-11-11-11-11--11-11-11-11p9--9--7---|
D||----------------------9h11-9h11-9h11-------------------------------------------------------|
A||-------------------------------------------------------------------------------------------|
E||-------------------------------------------------------------------------------------------|


Status Quo Menu

Status Quo News



«  Декабрь 2016  »
ПнВтСрЧтПтСбВс
   1234
567891011
12131415161718
19202122232425
262728293031

    Russian Fan Site Status Quo! 2008 2016 |