Status Quo - In My Chair


In My Chair Тип: табулатура


In My Chair - Status Quo
Tabbed by: Curtis (Rocker4500)
Email: Rocker45000@aol.com
Tuning: EADGBe (standard)

Chords
E A D G B e
E 0 2 x x x x
E* x x x 1 0 0 (played as an upstroke)
A X 0 2 2 x x
B x 2 4 4 x x
D x 5 7 7 x x

>> Main Riff <<
e|--------------------------------------------------------------------------|
B|--------------------------------------------------------------------------|
G|--------------------------------------------------------------------------|
D|--------------0-----------------------------------------------------------|
A|--------0-1-2---2-0h1p0---------------------------------------------------|
E|--0-1/3------------------3-0----------------------------------------------|


Intro
>> Main Riff << x3 with an interval of E and E*.

V1 (with palm muting)

E
I saw her talkin' now, my ears were burnin'
E
My feet started walkin' now, she started turnin'
A E
My eyes were half open but, she didn't see me there

>> main riff << E* E >> main riff << E* E

B D A E
We ran along walking cross the roof tops in my chair

>> main riff << E* E >> main riff << E* E

V2

E
Had a car in my pocket and, we started movin'
E
A man in a helmet said wat's that you're using
A E
My eyes were half open but, we didn't see him there

>> main riff << E* E >> main riff << E* E

B D A E
Put the car back in my pocket and I'm still hear in my chair

>> main riff << E* E >> main riff << E* E


Solo
A
e|--------------------------------------------------------------------------|
B|---12/14--14--14--14\12---play this---------------------------------------|
G|---12/14--14--14--14\12---lick twice--------------------------------------|
D|--------------------------------------------------------------------------|
A|--------------------------------------------------------------------------|
E|--------------------------------------------------------------------------|

E
e|--12----------------------------------------------------------------------|
B|----------------9-10-12-10-9-9h10p9---------------------------------------|
G|-----9----9-11----------------------11-9----------------------------------|
D|--------------------------------------------------------------------------|
A|--------------------------------------------------------------------------|
E|--------------------------------------------------------------------------|

A
e|--------------------------------------------------------------------------|
B|---12/14--14--14--14\12---play this---------------------------------------|
G|---12/14--14--14--14\12---lick twice--------------------------------------|
D|--------------------------------------------------------------------------|
A|--------------------------------------------------------------------------|
E|--------------------------------------------------------------------------|
B D A E
e|--7-7-7-7---10-10---5-5--0-------------------------------------------------|
B|---------------------------------------------------------------------------|
G|---------------------------------------------------------------------------|
D|---------------------------------------------------------------------------|
A|---------------------------------------------------------------------------|
E|---------------------------------------------------------------------------|

V3

E
My teeth were laughing now, we couldn't stop smiling
E
We danced with the mystery band, without even tryin'
A E
My eyes were half open but, you didn't see me there

>> main riff << E* E >> main riff << E* E

B D A E
We ran along walking cross the roof tops in my chair

>> main riff << E* E >> main riff << E* E

Play solo as outro.

When playing live, end on this -

>> Main Riff <<

F9 E9

| / slide up
| \ slide down
| h hammer-on
| p pull-off
| ~ vibrato
| + harmonic
| x Mute note

Status Quo Menu

Status Quo News



«  Декабрь 2016  »
ПнВтСрЧтПтСбВс
   1234
567891011
12131415161718
19202122232425
262728293031

    Russian Fan Site Status Quo! 2008 2016 |