Status Quo - Is There A Better Way


Is There A Better Way Тип: табулатура


Is There A Better Way
Status Quo
Blue For You 1976
quorockergreg@hotmail.co.uk

This one for you Ant!!!

Intro: (STOPS AT THE BREAK "|")
There Might Be Some Overdubs Here But it Works To Play It Solo.

F Bb C F Bb C F Bb C Bb F Bb C
E|-111-666-8--8--8-----111-666-8--8--8-----111-666-8--6-----111-666-8--8--8--|
B|-111-666-8--8--8-----111-666-8--8--8-----111-666-8--6-----111-666-8--8--8--|
G|-222-777-8--8--8-----222-777-8--8--8-----222-777-8--7-----222-777-8--8--8--|
D|-333-888-10-10-10----333-888-10-10-10----333-888-10-8-----333-888-10-10-10-|
A|-333-888-10-10-10----333-888-10-10-10----333-888-10-8-----333-888-10-10-10-|
E|-111-666-8--8--8-----111-666-8--8--8-----111-666-8--6-----111-666-8--8--8--|

Eb C
E|-11---|--------------------------------------------------------------------|
B|-11---|--------------------------------------------------------------------|
G|-12---|--------------------------------------------------------------------|
D|-13---|-10-----------------------------------------------------------------|
A|-13---|-10-10-10-10-10-10-10-10-10-10-10-10-10-10-10-10-10-10-10-10-10-----|
E|-11---|-8--8--8--8--8--8--8--8--8--8--8--8--8--8--8--8--11-8--8--8--11-----|
"Is there..."

AND SO ON UNTIL...
Eb C Bb
E|--------------------------------|
B|--------------------------------|
G|--------------------------------|
D|--------------------------------|
A|-13-13-13-13-13-13-13-10-8-8-8-8|
E|-11-11-11-11-11-11-11-8--6-6-6-6|
"I never wanna..."

Thats basicly it. Variations are used but I can't be bothered.
This is 99.9% CORRECT! Please E Mail me.

Status Quo Menu

Status Quo News



«  Декабрь 2016  »
ПнВтСрЧтПтСбВс
   1234
567891011
12131415161718
19202122232425
262728293031

    Russian Fan Site Status Quo! 2008 2016 |