Status Quo - Its Christmas Time


Its Christmas Time Тип: табулатура


It's Christmas Time
Status Quo
2008

The new single for Christmas '08.
There are a few guitars here but this is the main part...


G G/F# Em Em/D
E|----------------------------------------------------------|
B|----12-15------------12-15------12-15--------------12-15--|
G|-12---------12-11-12---------12--------11/12\11/12--------|
D|----------------------------------------------------------|
A|----------------------------------------------------------|
E|----------------------------------------------------------|

C D
E|--------------------------------------------------------|
B|-13-12-----------------------12-13-13-12----------10----|
G|-------14-12-14-16-----12-14-------------14-12-11-------|
D|-------------------14--------------------------------12-|
A|--------------------------------------------------------|
E|--------------------------------------------------------|

G G/F#
E|---------------------------|
B|----12-15------------12-15-|
G|-12---------12-11-12-------|
D|---------------------------|
A|---------------------------|
E|---------------------------|

C5 G5 D5 G5 D
E|----------------------------------------------------------|
B|-------12-15--/20-17-15h17p15-----------------------------|
G|-11/12------------------------17p16\14----14-16-14-14/19/-|
D|---------------------------------------17-----------------|
A|----------------------------------------------------------|
E|----------------------------------------------------------|

(The first D chord implies b7)

Status Quo Menu

Status Quo News



«  Декабрь 2016  »
ПнВтСрЧтПтСбВс
   1234
567891011
12131415161718
19202122232425
262728293031

    Russian Fan Site Status Quo! 2008 2016 |