Joes Sidewalk Cafe Тип: табулатура


Gentleman Joe's Sidewalk Cafe
Status Quo
Picturesque Matchstickable Messages 1968


E|-----8-----------------7--5---7-8-|
B|-5-8----8-8-6-5-6----6------8-----|
G|-------------------7--------------|
D|----------------------------------|
A|----------------------------------|
E|----------------------------------|


You can get a mate to harmonise with you...

E|-------12------------------------10--------10-12-|
B|----12-----12-12-10----10-----10-----13-10-------|
G|-12-----------------12-----10--------------------|
D|-------------------------------------------------|
A|-------------------------------------------------|
E|-------------------------------------------------|

Status Quo Menu

Status Quo News



«  Август 2017  »
ПнВтСрЧтПтСбВс
 123456
78910111213
14151617181920
21222324252627
28293031

    Russian Fan Site Status Quo! 2008 2017 |