Judy In Disguise Тип: басс табулатура


Judy In Disguise (With Glasses)
Status Quo
BBC Session



G|-------------------------|
D|-------------------------|
A|-5-5-------5-5-----------|
E|-----7-5-7-----7-5-5-7-5-|

G|-------------------------|
D|-------------------------|
A|-5-5-------5-5-----------|
E|-----7-5-7-----7-5-5-7-5-|
D E A
G|-------------------------|
D|-------------------------|
A|-5-5-------7-7-----------|
E|-----7-5-7-----7-5-5-7-5-|
D E A
G|-------------------------|
D|-------------------------|
A|-5-5-------7-7-----------|
E|-----7-5-7-----7-5-5-7-5-|
D E A D
G|----------------------------|
D|----------------------------|
A|-5-5-------7-7------------5-|
E|-----7-5-7-----7-5-5-7-5----|



Status Quo Menu

Status Quo News



«  Май 2017  »
ПнВтСрЧтПтСбВс
1234567
891011121314
15161718192021
22232425262728
293031

    Russian Fan Site Status Quo! 2008 2017 |