Status Quo - Juniors Wailing


Juniors Wailing Тип: табулатура


Juniors Wailing
Status Quo
Ma Kelly 1970 & Riffs 2003
Greg Harper quorockergreg@hotmail.co.uk


FRANCIS:
E|--------------------------------------------------------|
B|--------------------------------------------------------|
G|---------------7------------7------------7--------------|
D|-----9-9-9-7h9----9-9-9-7h9----9-9-9-7h9---9-9-9-7------|
A|--------------------------------------------------------|
E|-7-7-----------------------------------------------10-7-|

RICK:
E|-7-------------7------------7------------7--------------|
B|-7-------------7------------7------------7--------------|
G|-6-------------6------------6------------6--------------|
D|-9-------------9------------9------------9--------------|
A|-9-------------9------------9------------9--------------|
E|-7-------------7------------7------------7--------------|

ALAN:
G|--------------------------------------------------------|
D|--------------------------------------------------------|
A|-2-------------2------------2------------2--------------|
E|--------------------------------------------------------|


FRANCIS:
E|-------------------------------------------------|
B|-------------------------------------------------|
G|-9-9-9-7-7-7-9-9-9-7-7-7-9-9-9-7-7-7-9-9-9-7-7-7-|
D|-9-9-9-7-7-7-9-9-9-7-7-7-9-9-9-7-7-7-9-9-9-7-7-7-|
A|-7-7-7-5-5-5-7-7-7-5-5-5-7-7-7-5-5-5-7-7-7-5-5-5-|
E|-------------------------------------------------|

RICK:
E|-------------------------------------------------|
B|-------------------------------------------------|
G|-9-9-9-7-7-7-9-9-9-7-7-7-9-9-9-7-7-7-9-9-9-7-7-7-|
D|-9-9-9-7-7-7-9-9-9-7-7-7-9-9-9-7-7-7-9-9-9-7-7-7-|
A|-7-7-7-5-5-5-7-7-7-5-5-5-7-7-7-5-5-5-7-7-7-5-5-5-|
E|-------------------------------------------------|

ALAN:
G|-------------------------------------------------|
D|-------------------------------------------------|
A|-7-7-7-5-5-5-7-7-7-5-5-5-7-7-7-5-5-5-7-7-7-5-5-5-|
E|-------------------------------------------------|

You can work the rest out from there.
It's quite easy when you get the jist of it.
If you are struggling e-mail me.

B
Love me baby, love me when I'm down
E B
I said love me baby, love me when I'm down
F#
Yeah you gotta love me baby
E B
'cos there's no use hanging around

These chords back ALL the lyrics.

It's 100% correct. Good Luck!
The Riffs version is in C so shift everything up one fret.

Status Quo Menu

Status Quo News



«  Декабрь 2016  »
ПнВтСрЧтПтСбВс
   1234
567891011
12131415161718
19202122232425
262728293031

    Russian Fan Site Status Quo! 2008 2016 |