Status Quo - Just Take Me


Just Take Me Тип: табулатура


Just Take Me
(Lancaster-Parfitt)

Verse 1:

I am just a poor man, got nowhere to go,

All my leaves have fallen and left me all alone.

If I were a rich man, if I were a king,

I would give you all I have, I'd give you everything,
C C# D E
If you'd just take me, just take me now,
H-H-H-H-A-E H-H-H-H-A-E (2 times)
If you'd just take me.

Verse 2:
H A-E H A-E
Never seen my daddy, died when I was two,
H A-E H A-E
Mamma did the best she could taught me all she knew.
H A-E H A-E
Said that love was everything, tears came to her eyes,
H A-E H
Never know the meaning, now I realise
C C# D E
Love is all you need, all you need now
H-H-H-H-A-E H-H-H-H-A-E (2 times)
If you just take me.

(Guitar): E-E-E-E-E-E-E-E-F#-E-H (played 4 times)

Guitar solo starting with Francis alone with the hi-hat:

E|-----------------------------------------|
H|-----------------------------------------|
G|-----9-7-7-7----------7-7-7-7-7p6--------|
D|-(9)---------9p7----9-------------9-7-9--|
A|-----------------7-----------------------|
E|-----------------------------------------|

E|---------------------------------------------|
H|---------------------------------------------|
G|------7-7-----------------------7-9-9B11-9-7-|
D|--7-9-----------7-7---7-9-7-7-9--------------|
A|----------9-7-9-----9------------------------|
E|---------------------------------------------|

Then Rick fills in here with his rythme guitar

H A-E H....(etc)....
E|---------------------------------------|
H|---------------------------------------|
G|-9b11-9b11-9-9-7-7p6--------9-9-7-7-6--|
D|---------------------9-7-9-------------|
A|---------------------------------------|
E|---------------------------------------|

E|-----------------------------------|
H|-----------------------------------|
G|-----------------------------------|
D|-9-9-7-7-6-6-------------------6-7-|
A|-------------9-9-7-7-6-6-7-7-9-----|
E|-----------------------------------|

E|--------------------------9b10-9-7-------------|
H|-------7-10b12--10-7---------------10-7--------|
G|---7-9---------------9-7----------------9/9B11-|
D|-9---------------------------------------------|
A|-----------------------------------------------|
E|-----------------------------------------------|

E|-------------------------------------------------|
H|-------------------------------------------------|
G|-7-10p9p7-10p9p7-10p9p7-10p9p7-10p9p7-10b12r10-7-|
D|-------------------------------------------------|
A|-------------------------------------------------|
E|-------------------------------------------------|

E|--------------------------------------------|
H|-----------10p9p7-10p9p7-10p9p7-h9h10/10b12-|
G|-7h8----------------------------------------|
D|-----9-9-9----------------------------------|
A|--------------------------------------------|
E|--------------------------------------------|

E|-7-----------------------------------|
H|---10-7------------------------------|
G|--------9--7-8-----6-6-6-6p4---4-6-7-|
D|----------9----9-------------6-------|
A|-------------------------------------|
E|-------------------------------------|

E|-------------------------------------|
H|-------------------------------------|
G|---7-7-7-7-7p6-------6-9-9-9p7p6---6-|
D|-9-------------9-7-9-------------9---|
A|-------------------------------------|
E|-------------------------------------|

E|---------------------------------------|
H|---------------------------------------|
G|-9-9-9p7p6---6-9-9-9p7p6---6-----------|
D|-----------9-------------9---7p6p4-6-4-|
A|---------------------------------------|
E|---------------------------------------|

E|------------------------------------------------------------|
H|------------------------------------------------------------|
G|-----------4-4-4-------4-4-4-4--6b7-6b7-6p4---6b7-6b7-6p4---|
D|-------4h6-------6-4-6----------------------6-------------6-|
A|-2h4h6------------------------------------------------------|
E|------------------------------------------------------------|

E|--------------------------------------------------------------|
H|----------------------------7b9-7b9-7-4-----------------------|
G|----------------------------------------6b8-6b8-6b8-6b8-6---4-|
D|-6-6-6p4---------------4h6--------------------------------6---|
A|---------6p4-2-2-2h4h6----------------------------------------|
E|--------------------------------------------------------------|

E|---------------------------------------------------|
H|---------------------------------------------------|
G|-9b11-9b11-9b11-9b11-9-7---7-9b11-9b11-9-7---------|
D|-------------------------9-----------------9-7-----|
A|-----------------------------------------------9p7-|
E|---------------------------------------------------|

E|---------------------------------------------------------------|
H|---------------------------------------------------------------|
G|---------------------------------------------------------------|
D|---------------------------------------------------------------|
A|-2-2-2-------2-2-------2-2-------2-2-------2-2-------2-2-------|
E|-------4-2-4-----4-2-4-----4-2-4-----4-2-4-----4-2-4-----4-2-4-|

E|-------------------------------------------------------------|
H|-------------------------------------------------------------|
G|-------------------------------------------------------------|
D|-------------------------------------------------------------|
A|-2-2-------2-2-------2-2-------2-2-------2-2-------2-2-------|
E|-----4-2-4-----4-2-4-----4-2-4-----4-2-4-----4-2-4-----4-2-4-|



Verse 3:
I'm trying hard to get you, I'm not the only one,
I've never had a big car, but I'm not on the run.
If love has got a meaning, see it in my eyes,
If you see the beginning, then you'll realise.
Love is all you need, all you need now
If you just take me.

C C# D E
Just take me, just take me now,
H-H-H-H-A-E H-H-H-H-A-H
Won't you just take me.


Status Quo Menu

Status Quo News



«  Декабрь 2016  »
ПнВтСрЧтПтСбВс
   1234
567891011
12131415161718
19202122232425
262728293031

    Russian Fan Site Status Quo! 2008 2016 |