Status Quo - Keep Em Coming


Keep Em Coming Тип: табулатура


Keep 'em Coming


main riff
E|----------------|----------------||
B|----------------|----------------||
G|----4-------4---|------2---3-4-4-||
D|4-4-4---4---4---|2-3-4-0---0-0-0-||
A|2-2-2---2---2---|2-2-2-----------||
E|----------------|----------------||
d d u d u u u u u u u u

Intro:

E|----------------|----------------|----------------|----------------|
B|----------------|5-----------5---|2---------------|3-----------3---|
G|----------------|4-----------4---|4---------------|4-----------4---|
D|----------------|2---------------|2---------------|0---------------|
A|----------------|----------------|0---------------|0---------------|
E|----------------|----------------|----------------|----------------|


3 x main riff + E|----------------|----------------| When I say
B|----------------|----------------| stop! I refer
G|----------------|----------------| to these two
D|4-4-4-----4-4-4-|-4--------------| bars.
A|2-2-2-----2-2-2-|-2--------------|
E|----------------|----------------|

Verse 1:

4 x main riff


E|----------------|----------------|----------------|----------------|
B|----------------|----------------|----------------|----------------|
G|x---9-9---9-9---|----------------|x---7-7---7-7---|----------------|
D|x---9-9---9-9---|x---7-7---7-7---|x---7-7---7-7---|x---9-9---9-9---|
A|x---7-7---7-7---|x---7-7---7-7---|x---5-5---5-5---|x---9-9---9-9---|
E|----------------|x---5-5---5-5---|----------------|x---7-7---7-7---|


E|----------------|--------------------|--------------------|
B|----------------|--------------------|--------------------|
G|x---9-9---9-9---|x---11-11---11-11---|--------------------|
D|x---9-9---9-9---|x---11-11---11-11---|--------------------|
A|x---7-7---7-7---|x---9--9----9--9----|9-10-9-10-9-10-9-10-|
E|----------------|--------------------|--------------------|

The other guitar is playing these power chords in straight eights.

After the words "keep 'em coming" I hear a heavy muted guitar (I think)
playing:

E|----------------|----------------|
B|----------------|----------------|
G|----------------|----------------|
D|----------------|----------------|
A|9-9-9-9-9-9-9-9-|9-9-9-----------|
E|7-7-7-7-7-7-7-7-|7-7-7-----------|


Bridge:
2x 2x
E||------------------||------------------||
B||*----------------*||*----------------*||
G||-----9-9-----9----||-----7-7-----7----||
D||-----9-9-----9----||-----7-7-----7----||
A||*7-------7-------*||*5-------5-------*||
E||------------------||------------------||
d d u d d

2x 2x
E||------------------||------------------||
B||*----------------*||*----------------*||
G||------------------||------------------||
D||-----7-7-----7----||------------------||
A||*----7-7-----7---*||*9-9-9-9-9-9-9-9-*||
E||-5-------5--------||-7-7-7-7-7-7-7-7--||

2x
E|------------------|----------------||-------------------||
B|------------------|----------------||*------------------||
G|------------------|----------------||-------------------||
D|9-9-11-9-9-9-11-9-|5-5-7-5-5-5-7-5-||-------------------||
A|7-7-7--7-7-7-7--7-|3-3-3-3-3-3-3-3-||*7-7-9-7-10-7-9-7-*||
E|------------------|----------------||-5-5-5-5-5--5-5-5--||


E|------------------|----------------|
B|------------------|----------------|
G|------------------|----------------|
D|9-9-11-9-9-9-11-9-|5-5-7-5-5-5-7-5-|
A|7-7-7--7-7-7-7--7-|3-3-3-3-3-3-3-3-|
E|------------------|----------------|


E|----------------|----------------|
B|----------------|----------------|
G|----------------|----------------|
D|7-7-9-7-7-7-9-7-|----------------|
A|5-5-5-5-5-5-5-5-|5-0-5-0-5-0-5-0-|
E|----------------|----------------|


Solo: 7 x main riff + stop

Outro: 7 x main riff + stop


Solo:
I have no idea how Francis (if it isn't Rick) produces that screaming
sound in the first note. I presume it's the result of an effect. The
Closest i can come to this sound is to slide from d to d (3rd fret to
the 15th fret on the b-string) and give the thing a tremendous vibrato
and slide back. I'm not very effect or tremelo minded so maybe someone
can tell what is happening here. Maybe I'm hearing more than there is.

E|----------------|----------------|------------7---|-----------------|
B|3/15~~~~~\-7-10-|----------------|3/15~~~~~\--7-7-|7----7-7---7-----|
G|-----------7----|7-7-9---7-7-9-7-|--------------9-|9b10-9-7---7-----|
D|----------------|9-9-9-9-9-9-9-9-|----------------|---------9---9-9-|
A|----------------|----------------|----------------|-----------------|
E|----------------|----------------|----------------|-----------------|


E|--------------------|--------------------|--------------------------|
B|/10-10-10-10-10-12--|/10-10-10-10-10-12--|/10-10-10-10--------------|
G|/11-11-11-11-11-11--|/11-11-11-11-11-11--|/11-11-11-11-9b11r9p7-9-7-|
D|--------------------|--------------------|--------------------------|
A|--------------------|--------------------|--------------------------|
E|--------------------|--------------------|--------------------------|


E|-----------------------|--------------------------|
B|-----------15-15p12--15|----15p12--15----15p12--15|
G|9---7--------------14--|---------14-----------14--|
D|--9---9----------------|--------------------------|
A|-----------------------|--------------------------|
E|-----------------------|--------------------------|


E|--------------------------|--------------------------|
B|----15p12--15-15b17~~~r15-|15--15p12--15----15p12----|
G|---------14---------------|---------14-----------14--|
D|--------------------------|--------------------------|
A|--------------------------|--------------------------|
E|--------------------------|--------------------------|


E|----------------|----------------|----------------|
B|7---------------|----------------|----------------|
G|7-9-7-8---------|7*----------9---|7*----------9---| stop
D|--9-7-9---------|----9-9-9-9---9-|----9-9-9-9---9-|
A|----------------|----------------|----------------|
E|----------------|----------------|----------------|

Status Quo Menu

Status Quo News



«  Декабрь 2016  »
ПнВтСрЧтПтСбВс
   1234
567891011
12131415161718
19202122232425
262728293031

    Russian Fan Site Status Quo! 2008 2016 |