Status Quo - Lakka Lady


Lakka Lady Тип: табулатура


lakka Lady
Status Quo


7. 6. 5. 4. 3. 2. 1. <= frets
-----|-----|-----|--x--|-----|-----|-----|-----| E
-----|-----|-----|--0--|-----|-----|-----|-----| A
-----|-----|-----|-----|--0--|-----|-----|-----| D
-----|-----|-----|--0)-|-----|-----|-----|-----| G
-----|-----|-----|--0)-|-----|-----|-----|-----| H
-----|-----|-----|--0)-|-----|-----|-----|-----| E

D9

7. 6. 5. 4. 3. 2. 1. <= frets
-----|-----|--x--|-----|-----|-----|-----|-----| E
-----|-----|--0--|-----|-----|-----|-----|-----| A
-----|-----|-----|--0--|-----|-----|-----|-----| D
-----|-----|--0)-|-----|-----|-----|-----|-----| G
-----|-----|--0)-|-----|-----|-----|-----|-----| H
-----|-----|--0)-|-----|-----|-----|-----|-----| E

D#9

LAKKA LADY (Rossi/Parfitt)


This riff is played throughout (4 chords/4 bars) marked as *:
A
E|-0--0-0---0--0--0-0-0-0--0--0-0--0--0--0-0-0-0----------|
H|-2--2-2---3--3--3-3-3-3--5--5-5--3--3--3-3-3-3----------|
G|-0--0-0---0--0--0-0-0-0--0--0-0--0--0--0-0-0-0-- repeat |
D|-2--2-2---4--4--4-4-4-4--5--5-5--4--4--4-4-4-4----------|
A|-0--0-0-0-0--0--0-0-0-0--0--0-0--0--0--0-0-0-0----------|
E|--------------------------------------------------------|

* | | |
Ah well I've got a woman and I love love her so
* | | |
She is big fat and lazy but I want you all to know
D9 |D#9-D9 | | * *
That I love her And I need that woman so
H H E(stop) No Chord * *
She is my little lady... And I'm glad that you all know


And when she wakes in the morning and her figure tells no lies
My eyesight is frozen when the light shines on her thighs
But I love her
And I need that woman so
Oh well how could I tell you
What I'd do if she should go

S O L O (in A):

E|-10-10-10-10-10-10-10--9-12-12--10-10-10-10-10-10-10--9-12-12-12|
H|-12-12-12-12-12-12-12-10-14-14--12-12-12-12-12-12-12-10-14-14-14|
G|----------------------------------------------------------------|
D|----------------------------------------------------------------|
A|----------------------------------------------------------------|
E|----------------------------------------------------------------|

E|--7-7-7-------------7-7-7--5-5-------7-7-7--9-10-10-12-12-12-12-|
H|--8-8-8--8-5--------8-8-8------5-----8-8-8-10-12-12-14-14-14-14-|
G|-------------7-5-----------------5------------------------------|
D|-----------------7-----------------7----------------------------|
A|----------------------------------------------------------------|
E|----------------------------------------------------------------|


And I love her
And I need that woman so
Oh well how can I tell you
What I would do if she should go

Well now she is so lazy how she moves I'll never know
She was so different eleven years ago
But I love her
And I need that woman so
She's a big lakky lady
But I love that woman so


 

купить пиявки в Москве

Status Quo Menu

Status Quo News



«  Декабрь 2016  »
ПнВтСрЧтПтСбВс
   1234
567891011
12131415161718
19202122232425
262728293031

    Russian Fan Site Status Quo! 2008 2016 |