Like A Zombie (intro) Тип: табулатура


Like A Zombie
Status Quo
Rock 'til You Drop 1991


INTRO
Gtr. 1 [x3]
E|---------------|--------------|---------------|--------------|
B|---------------|--------------|---------------|--------------|
G|---------------|--------------|---------------|--------------|
D|---------------|---5-4-3--3-2-|-3-2-0-----2-0-|--------------|
A|---1-2-3-2-----|--------------|-------3-3-----|-3-1--1-1-0---|
E|-3---------3-2-|-1------------|---------------|------------3-|

E|------------|
B|------------|
G|------------|
D|---3------3-|
A|------------|
E|-1----1-1---|


Gtr. 2 [x3]
E|---------------|--------------|---------------|--------------|
B|---------------|---8-7-6--6-5-|-6-5-------5---|--------------|
G|---3-4-5-4-----|--------------|-----7-5-5---7-|-5-3--3-3-2-0-|
D|-5---------5-4-|-8------------|---------------|--------------|
A|---------------|--------------|---------------|--------------|
E|---------------|--------------|---------------|--------------|

E|------------|
B|---6------6-|
G|------------|
D|-3----3-3---|
A|------------|
E|------------|

Chords: "G, F, C, Bb, F" if I remember.


Status Quo Menu

Status Quo News



«  Октябрь 2017  »
ПнВтСрЧтПтСбВс
      1
2345678
9101112131415
16171819202122
23242526272829
3031

    Russian Fan Site Status Quo! 2008 2017 |