Status Quo - Like It Or Not (solo)


Like It Or Not (solo) Тип: табулатура


Like It Or Not
Status Quo
Thirsty Work 1994


/= Slide
()= Pre Bend
b= Bend
rb= Release Bend
h= Hammer On
p= Pull Off

0:01 * *
E|-13---------|------------|----------------|------------------|
B|-13b~~~~----|------------|----------------|-2-2-1------------|
G|------------|------0-1-3-|-1-1-0-0--------|-------3--3-0-1-3-|
D|------------|------------|---------3-3--3-|------------------|
A|------------|------------|----------------|------------------|x2
E|------------|------------|----------------|------------------|
* *

E|----------------|--------------|
B|----------------|-4-2-1--------|
G|-1-1-0-0--------|--------4--3--|
D|---------3-3--3-|--------------|
A|----------------|--------------|
E|----------------|--------------|




2:19
E|----------------------|-------------------|-----------------------|
B|----------------------|-------4-4---4-----|---4--4-------4--4-----|
G|-----1-1-(3b)-rb-p1---|-1-3/5---------3-5-|-6------3-5-6------3-5-|
D|-1-3----------------3-|-------------------|-----------------------|
A|----------------------|-------------------|-----------------------|
E|----------------------|-------------------|-----------------------|


E|-------------------------|--------------------------|-----------------|
B|---4---------------------|--------------------------|----9-9-8-9------|
G|-6---6-5-3---------------|------------------------8-|-10----------3-5-|
D|-----------6-5-6-5-3-----|-----------------6-8/10---|-----------------|
A|---------------------6-3-|-------------6-8----------|-----------------|
E|-------------------------|-6-4-4-4h6/8--------------|-----------------|


E|----------------------|-3-------------|
B|---4-4-------4--4-5-6-|---5-4h5p4-----|
G|-6-----3-5-6----------|-----------5-0-|
D|----------------------|---------------|
A|----------------------|---------------|
E|----------------------|---------------|


3:12
E|-----------------------|-----------------------------------------|
B|-----16p13----13-16p13-|----13-16p13-----------------------------|
G|-15b-------15----------|-15----------15-13-15b-rbp13----15----13-|
D|-----------------------|-----------------------------15----15----|
A|-----------------------|-----------------------------------------|
E|-----------------------|-----------------------------------------|
etc


Status Quo Menu

Status Quo News



«  Декабрь 2016  »
ПнВтСрЧтПтСбВс
   1234
567891011
12131415161718
19202122232425
262728293031

    Russian Fan Site Status Quo! 2008 2016 |