Status Quo - Little Lady


Little Lady Тип: табулатура


Little Lady

Intro:

E|-------7-------------------7-------------------------|
H|---------7-------------------7-----------------------|
G|--9b11-----10-9-7-----9b11-----10-9-7----------------|
D|------------------9-------------------9--------------|
A|-----------------------------------------------------|
E|-----------------------------------------------------|

E|-------7---------------------------------------------|
H|---------7-------------------------------------------|
G|--9b11-----10-9-7-6---7---7-6------------------------|
D|--------------------9---9-------8--------------------|
A|-----------------------------------------------------|
E|-----------------------------------------------------|

E|-----------------------------------------------------|
H|-----------------------------------------------------|
G|-----------------------------------------------------|
D|-----------------------------------------------------|
A|--9-9-11--12---11-9-9-11--12---11--------------------|
E|--7-7-7-7--7-7-7--7-7-7-7--7-7-7---------------------|

E|-----------------------------------------------------|
H|-----------------------------------------------------|
G|-----------------------------------------------------|
D|-----------------------------------------------------|
A|--9-9-11--12---11-9-9-11--12---11--------------------|
E|--7-7-7-7--7-7-7--7-7-7-7--7-7-7---------------------|



Little Lady
( Parfitt )

H
Well I saw my little lady

Walking down the street

And I asked here "Where you going to"

Well I saw my little lady

Walking down the street

Said she

Status Quo Menu

Status Quo News



«  Декабрь 2016  »
ПнВтСрЧтПтСбВс
   1234
567891011
12131415161718
19202122232425
262728293031

    Russian Fan Site Status Quo! 2008 2016 |