Status Quo - Little Me And You


Little Me And You Тип: табулатура


Little Me And You
Status Quo


Bridge:
. . .
E|----------------|----------------|-------------------|
B|----------------|----------------|-------------------|
G|----------------|----------------|--11-----11-----11-| (. = short)
D|----------------|----------------|--11-----11-----11-|
A|9---9-9-9---9-9-|9---9-9-9---9-9-|9----9-9----9-9----|
E|6/7-7-7-6/7-7-7-|6/7-7-7-6/7-7-7-|-------------------|

. .
E|------------------|----------------|----------------|
B|------------------|----------------|----------------|
G|--11-----11-------|----------------|----------------|
D|--11-----11-------|----------------|----------------|
A|9----9-9----9-9-9-|9---9-9-9---9-9-|9---9-9-9---9-9-|
E|------------------|6/7-7-7-6/7-7-7-|6/7-7-7-6/7-7-7-|


. . .
E|-------------------|-------------------|
B|-------------------|-------------------|
G|--11-----11-----11-|-------------------|
D|--11-----11-----11-|11-11-11-11--------|
A|9----9-9----9-9----|8--8--8--9---------|
E|-------------------|-------------------|


. . . . .
E|----------------|----------------|
B|----------------|----------------|
G|----------------|----------------|
D|--9-----9-----9-|--9-----9-------|
A|--9-----9-----9-|--9-----9-------|
E|7---7-7---7-7---|7---7-7---7-7-7-|

. . . . .
E|-------------------|------------------|
B|-------------------|------------------|
G|-------------------|------------------|
D|--11-----11-----11-|--11-----11-------|
A|--11-----11-----11-|--11-----11-------|
E|9----9-9----9-9----|9----9-9----9-9-9-|


Solo:

E|----|---14---------------|-------------------------|
B|----|------14------------|14----14-14---14----11---|
G|-13b|15-------15r13-11---|13b15-15-15---15r13-11---|
D|----|--------------------|-------------------------|
A|----|--------------------|-------------------------|
E|----|--------------------|-------------------------|


E|---------------------------------|--------------------|
B|11----------11----------11-------|---11------------11-|
G|11----------11----------11-------|---11------------11-|
D|---11----------11----------11----|--------------------|
A|------14-13-------14-13-------14-|13----13-11---------|
E|---------------------------------|------------14------|
d u u d d u u d d u u d d u d u


E|--------------------------|-----------------------|--7-------------|---|
B|12/14-14-12---11-11-12-11-|12/14-14-12---11\------|--7---7---------|---|
G|13/15-15-13---11-11-13-11-|13/15-15-13---11\----6b|8-------8r6-4-6-|4~~|
D|--------------------------|-----------------------|----------------|---|
A|--------------------------|-----------------------|----------------|---|
E|--------------------------|-----------------------|----------------|---|

Fill for solo (bar 5 and 6):

E|14-14------------------|14-14---------------|
B|------16---14-14-16-14-|------16---14\------|
G|-----------------------|--------------------|
D|-----------------------|--------------------|
A|-----------------------|--------------------|
E|-----------------------|--------------------|


I must admit that I'm not quite sure about bar 3 and 4 of the solo.
I think I made it more complicated than it is but I will listen to it
again after a while to see if I can come up with something better.
There are also a few additional guitarparts left to do. There's happening
more than I wrote down in terms of the rhythm guitars. I will do them
also later.

Status Quo Menu

Status Quo News



«  Декабрь 2016  »
ПнВтСрЧтПтСбВс
   1234
567891011
12131415161718
19202122232425
262728293031

    Russian Fan Site Status Quo! 2008 2016 |