Status Quo - Marguerita Time


Marguerita Time Тип: табулатура


Song: Marguerita Time
By: Status Quo
Album: Back To Back 1983





INTRO AND MAIN RIFF
A B C#m A E B E
E|---------------------------------------------------------------|
B|-----------4-5-5---4---------------------4-5-5----4------------|
G|-4-4-4--6--------6---6-4-4h5h6-6-----4-6--------6---6----------|
D|---------------------------------6-7------------------6-4-6-4--|
A|--------------------------------------------------------------7|
E|---------------------------------------------------------------|


E|-----------------|
B|-----------5-5---|
G|-----4-6-4-------|
D|-4-6-------------|
A|-----------------|
E|-----------------|


E B
Captured my heart, captured my memory,
C#m G#m
Captured a time for me, I could see,
F#m B
A time for me was gonna be.
E B
Deep in my heart, deep in my memory,
C#m G#m
Deep in a part of me, heart of me,
F#m B
Meant to be History,
F#m B
Could it be that I'm still wandering


E A
I never knew what had happened to me,
B E
I didn't think it was true,
E A
That I could be just like anyone else,
B E
I'll take my chance with you.


E B
Picture a dream, picture a fantasy,
C#m G#m
Picture the mood of me, mystery,
F#m B
You and me, a mystery.
E B
Lost in a dream, lost in a fantasy,
C#m G#m
Lost in what seemed to be, dreams to me,
F#m B
Seemed to be, had to be,
F#m B
Couldn't find no other reason,



Chorus


E B
Lets have a drink, it's marguerita time,
C#m G#m
It's marguerita time after nine,
F#m B
Summer time, anytime,
F#m B
You'll still always find me wandering



Chorus to fade...



Status Quo Menu

Status Quo News



«  Декабрь 2016  »
ПнВтСрЧтПтСбВс
   1234
567891011
12131415161718
19202122232425
262728293031

    Russian Fan Site Status Quo! 2008 2016 |