Status Quo - Matchstick Men


Matchstick Men Тип: табулатура


#----------------------------------PLEASE NOTE---------------------------------#
#This file is the author's own work and represents their interpretation of the #
#song. You may only use this file for private study, scholarship, or research. #
#------------------------------------------------------------------------------##
#

Subject: TAB: Pictures of Matchstick Men by Status Quo
Date: Tue, 4 Jun 1996 10:40:18 -0500


Pictures of Matchstick Men
Status Quo

Tabbed by: Paul Halvorson

This is one of the coolest songs ever written. If anybody else knows how
to play any of ther rest of it, please tab it and upload it to OLGA. I
especially want to know how to play the wah part during the verses. All this tab
is is the intro. I was screwing around, trying to to come up with what they
play during the verse, and I know there's a D chord and I think a G chord in
there, if that helps anybody. They play this in other parts of the song, too
though. Where it says "Wah", use the wah pedal to get a more trebly sound.


Distorted
||---10--10--10--10--10--10--8--8--8--12--12--12--12--12--10--10--10--10--------
||------------------------------------------------------------------------------
||------------------------------------------------------------------------------
||------------------------------------------------------------------------------
||------------------------------------------------------------------------------
||------------------------------------------------------------------------------


Wah Wah
8--9--10--10--10--10--10--10--10--10-----8--9--10--10--10--10--10--10--10--10--
-------------------------------------------------------------------------------
-------------------------------------------------------------------------------
-------------------------------------------------------------------------------
-------------------------------------------------------------------------------
-------------------------------------------------------------------------------



------10--10--10--10--10--10--8--8--8--12--12--12--12--12--10--10--10--10------
-------------------------------------------------------------------------------
-------------------------------------------------------------------------------
-------------------------------------------------------------------------------
-------------------------------------------------------------------------------
-------------------------------------------------------------------------------


Wah Wah
---8--9--10--10--10--10--10--10--10--10-----8--9--10--10--10--10--10--10-------
-------------------------------------------------------------------------------
-------------------------------------------------------------------------------
-------------------------------------------------------------------------------
-------------------------------------------------------------------------------
-------------------------------------------------------------------------------



10--10-----||
-----------||
-----------||
-----------||
-----------||
-----------||



=======
== TABLATURE EXPLANATION ==
=======

---------- ----------
----5h8--- Hammeron ----(8)--- Ghost Note
---------- ----------
----5p8--- Pulloff ----------

---------- ----------
----5/8--- Slide Up -----x---- Dead Note
---------- ----------
----5\8--- Slide Down ----------

---------- ||------|| Repeat Start & End
----5~~~-- Vibrato ||*----*||
---------- ||*----*||
---------- ||------||

Rhythm:
w = whole note W = dotted whole
h = half note H = dotted half
q = quarter note Q = dotted quarter
e = eighth note E = dotted eighth
s = sixteenth note S = dotted sixteenth
^ = triplet

Status Quo Menu

Status Quo News



«  Декабрь 2016  »
ПнВтСрЧтПтСбВс
   1234
567891011
12131415161718
19202122232425
262728293031

    Russian Fan Site Status Quo! 2008 2016 |