Status Quo - Mystery Song (intro)


Mystery Song (intro) Тип: табулатура


Mystery Song
Status Quo
Blue For You 1976



CAPO 2nd FRET.
TUNING: GGDGBD


D|-----------------------------------------------------------|
B|-2---2---2---2---2---22-----2---2---2---2---2---2--2-------|
G|-14--12--9---14--12--99-----12--11--7---12--11--9--7-------|
D|-2---2---2---2---2---22-----2---2---2---2---2---2--2-------|
G|-14--12--9---14--12--99-----12--11--7---12--11--9--7-------|
G|-----------------------------------------------------------|
THE CHORDS HAVE BEEN DONE SO I WONT BOTHER.
I CAN DO THE LONG VERSION INTRO SO IF YOU WANT IT E MAIL ME.




WELL I WAS E MAILED AND HERE IT IS...
SAME TUNING APPLIES. CHORDS ABOVE TAB ARE
BASS GUITAR NOTES BUT YOU CAN USE THEM ON
YOUR GUITAR
IF YOU WANT TO.

A G
D|---11------9------9----|
B|------10-----10-----10-|
G|-9-------9------9------|
D|-----------------------|X2
G|-----------------------|
G|-----------------------|

G F#
D|---9-----7-----7------|
B|-----8-----7-----7----|
G|-7-----7-----7--------|
D|----------------------|X2
G|----------------------|
G|----------------------|


OR SOMETHING LIKE THAT. ITS THEN FOLLOWED BY THESE CHORDS

D|---------------|
B|---------------|
G|-9-7-5--5555-7-|
D|-9-7-5--5555-7-|
G|-9-7-5--5555-7-|
G|---------------|

WELL YOU GET THE PICTURE...

THERE IS ALSO A TINY RIFF THAT YOU MAY FIND HELPFUL:

D|---------|
B|-----7-5-|
G|-6-7-----|
D|---------|
G|---------|
G|---------|


THE SOLO IS IN STANDARD WITH A CHUCK BERRY STYLE LICK
A BIT FAST FOR MY LIKING

E|----------5----5-|
B|----------5----5-|
G|-7b-7b-7b---7b---|
D|-----------------|
A|-----------------|
E|-----------------|YOU GET THE IDEA...


Status Quo Menu

Status Quo News



«  Декабрь 2016  »
ПнВтСрЧтПтСбВс
   1234
567891011
12131415161718
19202122232425
262728293031

    Russian Fan Site Status Quo! 2008 2016 |