Status Quo - Nanana


Nanana Тип: табулатура


NANANA
status Quo


E|---5--5--5--5--5--5--5--5--3--3--3--3--3--3--3--3|
H|--3--3--3--3--3--3--3--3--3--3--3--3--3--3--3--3-|
G|-2--2--2--2--2--2--2--2--2--2--2--2--2--2--2--2--|
D|-------------------------------------------------|
A|-------------------------------------------------|
E|-------------------------------------------------|

E|---0--0--0--0--1--1--1--1--1--1--1--1--1--1--1--1|
H|--3--3--3--3--3--3--3--3--3--3--3--3--3--3--3--3-|
G|-2--2--2--2--------------------------------------|
D|-------------3--3--3--3--0--0--0--0--0--0--0--0--|
A|-------------------------------------------------|
E|-------------------------------------------------|

Then D-chord

Nanana
(Rossi/Young)

verse:
D A D
Writing songs that I think sound so strange
A D
Writing words that I feel I should change
G A
It's all right if they sound just like other songs
G A
My guitar strums along just the same
D A D
If this song's underlined with my name

chorus:
G A D
Nanana na nana na na na na na na
G A D
Nanana na nana na na na na na
G A D
Nanana na nana na na na na na na
G A D
Nanana na nana na na na na na


verse:
Playing games that I think may be wrong
Making sounds that can go on and on
It's all right if you stay right on to the end
If my song could've been just a bore
Then I hope you may come back for more

chorus:
Nanana na nana na na na na na na
Nanana na nana na na na na na
Nanana na nana na na na na na na
Nanana na nana na na na na na
Nanana na nana na na na na na na
Nanana na nana na na na na na



Status Quo Menu

Status Quo News



«  Февраль 2017  »
ПнВтСрЧтПтСбВс
  12345
6789101112
13141516171819
20212223242526
2728

    Russian Fan Site Status Quo! 2008 2017 |