Status Quo - Nightride


Nightride Тип: табулатура


Song: Nightride
By: Status Quo
Album: On The Level 1975
Tabbed By: Greg Harper quorockergreg@hotmail.co.uk

I Don't Like The Song Personally. But Its Popular Among The Die-Hard Quo Fans!
I Did Use Help On This One. Its Hard To Work Out - Keywise

2 Guitars In The Intro. (......... = Let Ring)

Rick:
E|-----------------------------------------------|
B|-----------------------------------------------|
G|-----------------------------------------------|
D|-----------------------------------------------|
A|-9-9-11-9-9--11--14-14-16-14-14-16\9-----------|
E|-7-7-7--7-7--7---12-12-12-12-12-12\7-----------|


Francis:
E|-----------------------------------------------|
B|----------------------------7------------------|
G|-8......-----8----7-7-7-9p7---8----------------|
D|-----------------------------------------------|
A|-----------------------------------------------|And So On...
E|-----------------------------------------------|

B E B
Dreaming, going on a night ride

B E B
Hoping, it's gonna be the right ride
E
Feeling so well I'm in tune cant' you tell
B
That I'm grooving
D
Can't you tell I'm in tune
E B
And I'm moving so much closer to you


Leaning, hoping for a straight line
Meaning, hoping for the right rhyme
I'm in tune to the room
'Cos my head just went Boom
And I'm moving
Can't you tell I'm in tune
And I'm moving so much closer to you
Can't you tell I'm in tune
F#
And I'm moving so much closer to you

F#7 B
You, you, you, you, you move me
E7 B
You, you, you, you, you move me
E7 B
You, you, you, you, you move me
E7 B
You, you, you, you, you move me

Solo

E|--------7-7--7---------7-7--7----------------------------------------|
B|--------7-7--7---------7-7--7-----------14----14-15b16--15b16~-------|
G|--9b11----------7-9b11---------9-7-9/16----16------------------------|
D|---------------------------------------------------------------------|
A|---------------------------------------------------------------------|
E|---------------------------------------------------------------------|


E|---------------------------------------------------------------------|
B|-14----14-----19b21--17----------------------------------------------|
G|----16----16------------18-16----16-18b19r18-16-18-16--16~--14-16-16~|
D|------------------------------18-------------------------------------|
A|---------------------------------------------------------------------|
E|---------------------------------------------------------------------|


E|---------------------------------------------------------------------|
B|-----------------------------------19b21-19b21b22--17-17-------------|
G|-14--18b20-(18)b20-(18)b20r18-16~------------------------16----16\---|
D|------------------------------------------------------------17-------|
A|---------------------------------------------------------------------|
E|---------------------------------------------------------------------|


E|---------------------------------------------------------------------|
B|--------12-------12-------14b16--(16)r14--12~------------------------|
G|--12-13----12-13----12-13----------------------12\-------------------|
D|---------------------------------------------------------------------|
A|---------------------------------------------------------------------|
E|---------------------------------------------------------------------|


E|---------------------------------------------7-----------------------|
B|---------------------------------------------------------------------|
G|--7-8--7~---7--9b11-9b11-9b11r9p7-8-----9b11---8-7-8-----------------|
D|----------9-------------------------9----------------9~--------------|
A|---------------------------------------------------------------------|
E|---------------------------------------------------------------------|


Scheming, thinking of the right place
Beaming, laughing at my own face
We've got a long way to go
'Cos you make like you're so dissaproving
But can't you tell I'm in tune
And I'm moving so much closer to you
Can't you tell I'm in tune
And I'm moving so much closer to you

You, you, you, you, you move me
You, you, you, you, you move me
You, you, you, you, you move me
You, you, you, you, you move me
You......

 

На сайте http://www.teplovizor77.ru аренда тепловизора.

Status Quo Menu

Status Quo News



«  Декабрь 2016  »
ПнВтСрЧтПтСбВс
   1234
567891011
12131415161718
19202122232425
262728293031

    Russian Fan Site Status Quo! 2008 2016 |