Status Quo - Of A Change (intro)


Of A Change (intro) Тип: табулатура


Ring Of A Change
Status Quo
Blue For You 1976
Greg Harper quorockergreg@hotmail.co.uk


C G C G C
E|-------------------------------------------------------------------------|
B|-------------------------------------------------------------------------|
G|-------------------------------------------------------------------------|
D|---------5-7-5-------------------------5-7-5--------------------------5-7|
A|-3-3-6-7----------------5-7-5--3-3-6-7----------------5-7-5--3-3-6-7-----|
E|----------------3-3-6-7-----------------------3-3-6-7--------------------|
C Bb D C
E|--------------------------------|----------------------------------------|
B|--------------------------------|----------------------------------------|
G|--------------------------------|----------------------------------------|
D|--------------------------------|-10-10-10-8-8-8-12-12-12-10-10-10-------|
A|----------5-7-5------------5-7-5|-10-10-10-8-8-8-12-12-12-10-10-10-------|
E|-3-3-6-7----------3-3-6-7-------|-8--8--8--6-6-6-10-10-10-8--8--8--6h7---|

Then Repeat From Barline. OK?

Status Quo Menu

Status Quo News



«  Декабрь 2016  »
ПнВтСрЧтПтСбВс
   1234
567891011
12131415161718
19202122232425
262728293031

    Russian Fan Site Status Quo! 2008 2016 |